Guitar Tabs, Chords and Lyrics


Satisfaction(I Can't Get Now)  Rolling Stones

|--------------------------|--------------------------|
|--------------------------|--------------------------|
|--------------------------|--------------------------|
|--------------------------|--------------------------|
|--2-----2--------2--4--5--|-(5)----------5--54-42--|
|--------------------------|--------------------------|

       [E]                  [A]   [D]            [A]                                                                            
|--------------------------|--------------------------|
|--------------------------|--------------------------|(These bars 2x)
|--------------------------|--------------------------|
|--------------------------|--------------------------|
|--2-----2--------2--4--5--|-(5)----------5--54-42--|
|--------------------------|--------------------------|

   [E]                           [D/A]      [E]                                                                            
|--------------------------|--------------------------|
|--------------------------|--------------------------|
|--------------------------|--------------------------|
|--------------------------|--------------------------|
|--2-----2--------2--4--5--|-(5)----------5--54-42--|
|--------------------------|--------------------------|

Verse(fuzz turned off, rebverb on)
   [E]                                                                                                        
|--------------------------|--------------------------|
|--------------------------|--------------------------|
|--------------------------|--------------------------|
|--------------------------|--------------------------|
|-2------------------------|--------------------74---|
|--------------------------|------------------------7|

   [A]                                                                                                        
|--------------------------|--------------------------|
|--------------------------|--------------------------|
|--------------------------|--------------------------|
|--------------------------|--------------------------|
|--------------------------|-----------------4-4h7-4--|
|--5-----------5-----5-----|--------5-----5-----------|

   [E]                                                                                                        
|--------------------------|--------------------------|
|--------------------------|--------------------------|
|--------------7--7--7--7--|--7-----7-----------------|
|--------9-----9--9--9--9--|--9-----9-----------------|
|--7-----7-----7--7--7--7--|--7-----7-----4--4h7--4---|
|--------------------------|-----------7------------7-|

   [A]                                                                                                       
|--------------------------|--------------------------|
|--------------------------|--------------------------|
|--------------------------|--------2-----------------|
|--------2--2--2-----2-----|--------2--------3--------|
|--0-----0--0--0--4--------|--------0--0--4-----------|
|--------------------------|--------------------------|

   [E]                           [B7]                                                                               
|--------------------------|--------------------------|
|--------3-----2--3--------|--------------------------|
|--------1-----1--1--------|--------------------------|
|--------0-----0--0--------|-----------2--4p2---2--4--|
|--------------------------|--2--2--4--------4--------|
|--0--0--------------------|--------------------------|

    [E]                          [A]                                                                             
|--------------------------|--------------------------|
|--------3-----0--3--------|--------------------------|
|--------1-----1--1--------|--------------------------|
|--------0-----0--0--------|-----------2--4p2---2-----|
|--------------------------|--0--0--4--------4--------|
|--0--0--------------------|--------------------------|

(Fuzz tone back on)
   [E]                  [A]   [D]            [A]                                                                           
|--------------------------|--------------------------|
|--------------------------|--------------------------|
|--------------------------|--------------------------|
|--------------------------|--------------------------|
|-----------------2--4--5--|-(5)----------5--54-42--|
|--------------------------|--------------------------|

Chorus(fuzz tone)
   [E]                  [A]   [D]            [A]                                                                           
|--------------------------|--------------------------|
|--------------------------|--------------------------|(These bars 6x)
|--------------------------|--------------------------|(Then Fill)
|--------------------------|--------------------------|(Then these bars 2x)
|--2-----2--------2--4--5--|-(5)----------5--54-42--|
|--------------------------|--------------------------|

Fill
E Hey, hey, hey
|--------------------------|--------------------------|
|--------------------------|--------------------------|
|--------------------------|--------------------------|
|--------------------------|--------------------------|
|2-------------------------|--------------------------|
|--------------------------|--------------------------|

Order To Play=
Intro
Verse
Chorus
Verse
Chorus
Verse
Chorus
Outro(play the chorus but skip the fill)repeat and fade
From: James T. Morris
Subject: TAB: Satisfaction - The Rolling Stones
(I Can't Get No) Satisfaction
Words and music by Mick Jagger & Keith Richards C1965
Main Riff (continue pattern)
E-|-----------------------------------------------------------|
B-|-----------------------------------------------------------|
G-|-----------------------------------------------------------|
D-|-----------------------------------------------------------|
A-|-2--2----2--4--5----5--5--4--2--2--------------------------|
E-|-----------------------------------------------------------|

                                    [E]I can't get no [A]satisfaction  [E]I can't get no [A]satisfaction
Cause I try__[E]   and I try___[B7]    and I try__[E]  and try__[A]
(start main riff)
[A]I can'[E]t get no        [A]   [D]       I[A] can't g[E]et no[A] [D]
W[A]hen I[E]'m driving  in m[A]y c[D]ar    and[A] the ma[E]n comes on the[A] ra[D]dio
[A]he's t[E]elling me more a[A]nd [D]more   ab[A]out som[E]e useless info[A]rma[D]tion
[A]suppose[E]d to drive my i[A]magi[D]nation  [A]I can't[E] get no    [A] [D]
A E (NC) E A D A E A D
Oh no no no hey hey hey That's what I say
From: ericb@arkaroo2.ecr.mu.oz.au (Enrico_Giuseppe BETTIO)
Subject: CRD: I Cant Get No Satisfaction - Rolling Stones
Here's what I got:
(I can't get no) Satisfaction - Rolling Stones
------------------------------

Riff:
E---------------------------------
B---------------------------------
G---------------------------------
D--------------------------------- over and over during verses
A-2--2~~---2-4-5~~----5-5^4-4^2--- ^ = pull off or slide
E---------------------------------

chorus:
[E]  I can't get no
[A]  satisfaction
[E]  I can't get no
[A]  satisfaction
And I try[E], and I try[B7],
and I try[E], and I try[A].
(with riff)
I cant g[E]et no[A]
I cant g[E]et no[A]
When Im dr[E]iving in my c[A]ar
And that m[E]an comes on the r[A]adio
And he's t[E]ellin' me more and m[A]ore
about some [E]useless inform[A]ation
Supposed to f[E]ire my imagin[A]ation
I can't g[E]et no[A]
tacet
Oh no no no
hey hey h[E]ey[A]
thats what I s[E]ay[A]
When I'm watching my t.v.
And a man comes on and tells me
How white my shirts could be
But he cant be a man cos he doesnt smoke
The same cigarettes as me
I cant get no,
no no no.
When I'm riding 'round the world
And I'm doing this and I'm signing that
And Im trying to meet some girl
And tell me "Baby better come back maybe next week,
Cos you see I'm on a losin' streak"
I cant get no,
no no no.
hey hey hey
I cant get no.....
..
..
seeya
eric
From: cscsj@lux.latrobe.edu.au ( Junacko)
From: BRYAMI@morekypr
Subject: Re: I can't get no...satisfaction
Undercover - The Rolling Stones Mailing List
          ---------------------------------------------- 

Steve,
The fingering I usually use is (in standard tuning) the low 'E' string open
on the 2cd fret of the 'A' string.
For the Fthe ring finger gets the 'A' string, 4th fret.
For the G, just move both fingers up one fret: index 'E' string, third fret
and ring finger 'A' string, 5th fret.
Since I am primarily a rhythm player, I use a simple strum pattern on the
chorus. I usually strike the strike the chord and let it ring for seven
beats. Then I strum four sixteenth notes and move on to the next chord.
I hope I'm clear on that...It's kind of hard to describe...
The tab you sent over the list helped me greatly...especially on "Paint
it Black". I seem to have alot f trouble copying minor-key songs..
Thanks for the 'G' tuning tip.

Important: The song above is NOT stored on the Chordie server. The original song is hosted at members.tripod.com. Chordie works as a search engine and provides on-the-fly formatting. Chordie does not index songs against artists/composers will. To remove this song please click here.

Text color:
Chord color:
Chord grids: 
Font size:    
Page size: 

A B7 D E
variations - click chord images

Login - add to songbook

Transpose chords

Tuning

Rating click stars to rate

Layout
Accuracy

SHARE PAGE  




You need to log in to post comments