Guitar Tabs, Chords and Lyrics


I Still Haven't Found What I'm Looking For  U2

e--------------------------------4-----------------
b-----5-5-5-----5---------5-5-5----5--------------
g--2----------2-----2---2--------------------------
d--------------------------------------------------
a--------------------------------------------------
e--------------------------------------------------

#FIGURE 2


e------------------------------4---------------------------------------4---
b--------5-5-5---5-------5-5-5---5----------5-5-5----5---------5-5-5-----5-
g-----2--------2-------2-------------------2-------2---------2-------------
d--0----------------0------------------------------------------------------
a----------------------------------------0------------------0--------------
e--------------------------------------------------------------------------
#FIGURE 3  (Play twice)


e-------------------------------4-----------------------------------4----
b-----5-5-5-----5--------5-5-5----5--------5-5-5-----5---------5-5-5---5-
g----2-------2---------2------------------2--------2---------2-----------
d--------------------0---------------------------------------------------
a----------------------------------------0-----------------0-------------
e-0----------------------------------------------------------------------
#Play FIGURES 1 & 2 during the Verse of the song, and play##(this can be played as the solo too) :#
e---x--x--x------x--x--x------x--x------x--x--x---
b---3--3--2------3--3--2------2--3------3--3--2---
g---2--2--2------2--2--2------2--2------2--2--2---
d---2--2--2------2--2--2------2--2------2--2--2---
a---x--x--x------x--x--x------x--x------x--x--x---
e---x--x--x------x--x--x------x--x------x--x--x---

###
------------------------------------------

##[D] I have run through the fields
Only to be with you
        [G]  Only to be with you
        [D]  I have run I have crawled
       [D]  I have scaled these city walls
                      [G]  Only to be with you
        [D]  But I still haven't found
           [A]              [G]  What I'm looking for
             [D]  But I still haven't found
What I'm looking for
I have kissed honey lips
Felt the healing in her fingertips
It burned like fire
This burning desire
I have spoke with the tongue of angels
I have held the hand of a devil
It was warm in the night
I was cold as a stone
But I still haven't found
What I'm looking for
But I still haven't found
What I'm looking for
I believe in the Kingdom Come
Then all the colors will bleed into one
But yes I'm still running.
You broke the bonds
You loosened the chains
You carried the cross
And my shame
And my shame
You know I believed it
But I still haven't found
What I'm looking for
But I still haven't found
What I'm looking for
CHORD FORMATIONS:
-----------------

D x x 0 2 3 2
G 3 2 0 0 3 3
A x 0 2 2 2 0
Note: the book has D5 and G5 instead of D and G, but I think this makes for
a nicer acoustic version. Below are the 5th chords, which might be good for a
second guitar:
D5 10 12 0 x x x
G5 3 5 0 x x x
A5 5 7 0 x x x
Also, below is tab used in the song, in case you want to play around
with that (heavy echo recommended for best effect):
Intro (MUTED):
E-----------------------------------------------------------------------------
B-----------------------------------------------------------------------------
G-7-7-7-7-7---7-7-7-7-7-------------------------------------------------------
D-----------------------------------------------------------------------------
A-----------------------------------------------------------------------------
E-----------------------------------------------------------------------------

Main guitar riffs used by The_Edge (heavy echo):
E--------------------------------------------------9--------------------------
B------10-10-10-----10-10-10-----10-10-10-----10-10-10------------------------
G----7------7-----7------7-----7------7-----7---------------------------------
D--0------------0------------0------------0-----------------------------------
A-----------------------------------------------------------------------------
E-----------------------------------------------------------------------------

Finally, the guitar interlude before the last verse (this can be played
in the "just chords" acoustic version, or the regular "real" version):
E-2--2--2--3--3--3-----3--3--3--2-----2-----2--2--2--3-----3-----3--3--3--2---
B-3--3--3--3--3--3-----3--3--3--3-----3-----3--3--3--3-----3-----3--3--3--3---
G-2--2--2--2--2--2-----2--2--2--2-----2-----2--2--2--0-----0-----0--0--0--2---
D-----------------------------------------------------------------------------
A-----------------------------------------------------------------------------
E-----------------------------------------------------------------------------

TUNING: Standard, stick a capo on the first fret
Transcribed by Justin Kunz, kunjust@lyco.lycoming.edu
Mail me with any comments, suggestions, or ideas
CHORDS USED (relative to the capo):
Cadd9 x30013
Fadd9 xx3013
Gsus xx0013
C/F xx3010
C x32010
RHYTHM GUITAR:
I have c[Cadd9]limbed highest mountains        I have run through the fields
Only to [Fadd9]be with you                     Only to [Cadd9]be with you
I have run, I have crawled I have sealed these city walls
These ci[Fadd9]ty walls                        Only to [Cadd9]be with you
But I st[Gsus]ill_______ haven't found[C/F] what I'm lookin[C]g for
But I st[Gsus]ill_______ haven't found[C/F] what I'm lookin[C]g for
I have k[Cadd9]issed honey lips                Felt the healing fingertips
It burne[Fadd9]d like fire                     This bur[Cadd9]ning desire
I have spoke with the tongue of angels I have held the hand of the devil
It was w[Fadd9]arm in the night                I was co[Cadd9]ld as a stone
But I st[Gsus]ill_______ haven't found[C/F] what I'm lookin[C]g for
But I st[Gsus]ill_______ haven't found[C/F] what I'm lookin[C]g for
[Cadd9]I believe in the kingdom come           Then all the colors will bleed into one
Bleed in[Fadd9]to one                          But yes,[Cadd9] I'm still runnnin'
Broke the bonds and loosened the chains Carry the cross of my shame
Of my sh[Fadd9]ame                             You know[Cadd9] I believe it
But I st[Gsus]ill_______ haven't found[C/F] what I'm lookin[C]g for
But I st[Gsus]ill_______ haven't found[C/F] what I'm lookin[C]g for
LEAD GUITAR:
p= pick off
E--0-3-3p0----5-3-3-0----0-3-3p0----5-3-3-0----0-------------0------------
B------------------------------------------------3-1-3-1-1-----3-1-3-1-1--
G-------------------------------------------------------------------------
D-------------------------------------------------------------------------
A-------------------------------------------------------------------------
E-------------------------------------------------------------------------

(I have climbed...) (Only to be...)
(REPEAT AGAIN FOR VERSE)
E--------3-----1p0--------------------------------------------------------
B--1--1------------1---------------1-1-1----------------------------------
G------------------------------2-2----------------------------------------
D-------------------------------------------------------------------------
A-------------------------------------------------------------------------
E-------------------------------------------------------------------------

(But I still...) (...what I'm looking for)
kunjust@lyco.lycoming.edu
I Still Haven't Found What I'm Looking For
- ----- ------- ----- ---- --- ------- --- 

chords by: Sergio Lucero, slucero@cec.uchile.cl
I have c[C]limbed the highest mountains
I have run through the fields
Only to [F]be with you
Only to [C]be with you
  I have r[C]un, I have crawled
I have scaled these city walls
Only to [F]be with you
Only to [C]be with you
:/ But I st[G]ill haven't fou[F]nd what I'm lo[C]oking for /:
I have kissed honey lips
Felt the healing in her fingertips
It burned like fire this burning desire
I have spoke with the tongue of angels
I have held the hand of a devil
It was warm in the night, I was cold as a stone
:/ But I still haven't found what I'm looking for /:
I believe in the Kingdom Come
Then all the colours will bleed into one
But yes I'm still running.
You broke the bonds, you loosened the chains
You carried the cross
And my shame, and my shame
You know I believed it
:/ But I still haven't found what I'm looking for /:

Important: The song above is NOT stored on the Chordie server. The original song is hosted at membres.lycos.fr. Chordie works as a search engine and provides on-the-fly formatting. Chordie does not index songs against artists/composers will. To remove this song please click here.

Text color:
Chord color:
Chord grids: 
Font size:    
Page size: 

A C C/F Cadd9 D F Fadd9 G Gsus
variations - click chord images

Login - add to songbook

Transpose chords

Tuning

Rating click stars to rate

Layout
Accuracy

SHARE PAGE  




You need to log in to post comments