Guitar Tabs, Chords and Lyrics


roadhouse blues   Doors



#----------------------------------PLEASE NOTE---------------------------------#
#This file is the author's own work and represents their interpretation of the #
#song. You may only use this file for private study, scholarship, or research. #
#------------------------------------------------------------------------------#

The Doors

Roadhouse Blues

Guitar Tab

Tabbed by Matt Mitchell
        MMitch9682@aol.com


Intro
--------------------------------------------------/
--------------------------------------------------/
--------------------------------------------------/
--------------------------------------------------/
--------------------------------------------5~6~7-/
-0--0--0--0--0--0--5~6~7--0--0--0--0--0--0--------/

Verse

--------------------------------------------------
--------------------------------------------------
--------------------------------------------------
--------------------------------------------------
--------------------------------------------5~6~7-
-0--0--0--0--0--0--5~6~7--0--0--0--0--0--0--------

 -----------------------------------/
 -----------------------------------/
 -----------------------------------/
 --------------------------5--------/
 -----------------------------7~5~7-/
 -0--0--0--0--0--0--5~6~7-----------/

pre chorus

-------------------------------------------------
-------------------------------------------------
-------------------------------------------------
-------------------------------------------------
----5-----5-----5--------------2-----2-----2-----
-7-----7-----7-----7--6--5--5-----5-----5-----3--

 -----------------------------------/
 -----------------------------------/
 -----------------------------------/
 --------------------------5--------/
 -----------------------------7~5~7-/
 -0--0--0--0--0--0--5~6~7-----------/

chorus

------------------------/              ------------------/
------------------------/              ------------------/
------------------------/              ------------------/
------------------------/ X 6 then     ------------------/
-7--7--7--7--7--7--9--7-/              -9-9-9--10--10--9-/
-5--5--8--9--5--5--5--5-/              -7-7-7--8---8---7-/
                                          ! 3 !
                                   play this triplet
                                        4 times

solo

if you don't know what a pentatonic scale is, please go out and learn it

this is a simple pentatonic scale in Em.

the beginning is played by bending an A (14th fret on the G string) up to
a B (1 step), and also playing the B on the 12th fret of the B string.

the rest is improvisation on the Em pentatonic scale.
these are the main notes

-12-15
-12-15
-12-14
-12-14
-12-14
-12-15



the song

intro X 6

verse X 2
keep your eyes on the road, your hands upon the wheel
keep your eyes on the road, your hands upon the wheel

pre chorus
we're going to the roadhouse we're gonna have a real, good time

intro X 2

verse X 2
in the back of the roadhouse we've got some bungaloes
in the back of the roadhouse we've got some bungaloes

pre chorus
and that's for the people who like to go down slow

chorus
let it roll, baby roll
let it roll, baby roll
let it roll, baby roll
let it roll, all night long

solo w/intro
(it involves piano and harmonica and has a lot of ad lib so make it long)

intro
you gotta roll roll roll, you gotta fill my soul all right
roll roll roll i gotta fill my soul
ad lib vox
harmonica solo
passion lady give up your mouse
passion lady give up your mouse
SAVE OUR CITY
SAVE OUR CITY
right now

verse X 2
well, i woke up this morning, i got myself a beer
well, i woke up this morning, i got myself a beer

pre chorus
the future's uncertain and the end is always near

chorus
same as first






  Back to index / d / doo

Important: The song above is NOT stored on the Chordie server. The original song is hosted at tabfu.thudspace.net. Chordie works as a search engine and provides on-the-fly formatting. Chordie does not index songs against artists/composers will. To remove this song please click here.

This song is displayed as text-only. Transposing and tuning is only available for chordpro-songs.

Login - add to songbook

Rating click stars to rate

Layout
Accuracy

SHARE PAGE  




You need to log in to post comments