Guitar Tabs, Chords and Lyrics


Lady  Modjo

[a]   [C7sus2]          [Cm7]        ^v  v     v  ^  v  ^
 ---33--3-----3--3--3--3-
 ---33--3-----3h44--4--4-
 ---33--3-----3--3--3--3-
 ---55--5-----5--5--5--5-
 ---33--3-----3--3--3--3-
 ---xx--x-----x--x--x--x-

Suggested fingering: x35333 x35343
iriii irimi
a2) Same as a) but adding two extra final strokes v ^
[b]   [G                                                                                    
 ---33--3-----3--3--3--3-
 ---33--3-----3h44--4--4-
 ---55--5-----5--5--5--5-
 ---55--5-----5--5--5--5-
 ---xx--x-----x--x--x--x-
 ---44--4-----4--4--4--4-

Suggested fingering: 4x5533 4x5543
t rpii t rpmi
b2) Same as b) but adding two extra final strokes v ^
c) G7 G7+5
^v v v ^ v ^ v ^ ^v v v v v
 ---xx--x-----x--x--x--x----x-x----xx--x--x--x--x-
 ---33--3-----3h44--4--4----4-4----44--4--4--4--4-
 ---44--4-----4--4--4--4----4-4----44--4--4--4--4-
 ---33--3-----3--3--3--3----3-3----33--3--3--3--3-
 ---xx--x-----x--x--x--x----x-x----xx--x--x--x--x-
 ---33--3-----3--3--3--3----3-3----33--3--3--3--3-

Suggested fingering: 3x343x 3x344x or 3x343x 3x344x
t imi t imr t irm t irp
(intro)
[a]  [a]  [a]  [a]  [a]  [a]  [a]  [a]  [b]  [b]  [b]  [b]   (part 1)
[a]                [a]   Lady... hear me tonight
[a]                  [a]   'cos my feelin is just so right
[b]                   [b]   as we dance by the moonlight
[b]                    [b]   can't you see you're my delight
[a]                [a]   Lady... I just feel like
[a]               [a]   I won't get you out of my mind
[b]                    [b]   I feel loved for the first time
[b]                               [b]   and I know that it's true I can tell by the look in your eyes
[a2]   [a2]   [b2]   [b2]   [b2]   [b2]    a2 a2 a2 a2 b2 b2 b2 b2 c
(repeat part 1)
(repeat part 1 starting with no guitar and progressively fading in at
the third verse)


Important: The song above is NOT stored on the Chordie server. The original song is hosted at tabs.chriscentral.com. Chordie works as a search engine and provides on-the-fly formatting. Chordie does not index songs against artists/composers will. To remove this song please click here.

Text color:
Chord color:
Chord grids: 
Font size:    
Page size: 

C7sus2 Cm7
variations - click chord images

Login - add to songbook

Transpose chords

Tuning

Rating click stars to rate

Layout
Accuracy

Jango Player

SHARE PAGE  




You need to log in to post comments