Guitar Tabs, Chords and Lyrics


Cochise v7   Audioslave


Song: Cochise
Band: Audioslave
Album: Audioslave
Composer: Tom Morello
Lyrics: Chris Cornell
Tab Author: R. Cazares (cattlehead@hotmail.com) claims this work.

Here's the tab for the first single of Audioslave's 
self-titled debut. The song is called "Cochise".
I've watched Tom play the song several times,
and I've made many corrections to match the tab
with the way Tom chooses to play the song.

Key:

/= slide up
= slide down
b= bend
r= release
h= hammer on
p= pull off

Intro:
You're pretty much on your own for the intro. 
All I know is that during the very beginning, 
all Tom does is mute the strings with a delay 
on, just like in Rage's "The Ghost of Tom Joad."
He then slaps the strings.
The next part of the intro, I'm not so sure about.
It sounds like a closed wah strumming this:

e --------------------------
B --------------------------
G --------------------------
D --------------------------
A -7------------------------
E -0------------------------

I'm thinking maybe Tom also makes use of the Digitech
Whammy pedal that he has for the increse in pitch of 
the intro. But don't take my word for the intro.
I've tried doing this with my Whammy and it doesn't
sound right at all.

Verse:

e ----------------------------------
B ----------------------------------
G ----------------------------------
D ----------------------------------
A -5h7--5---5----------5h7--5-------
E --------7---7-3-0-----------7-3-0-

Pre-Chorus:

e -------------------------------
B -------------------------------
G -------------------------------
D -------------------7---8-------
A -5h7--5---5--------5---6-------
E --------7---7-3-0--------------

Chorus:

e ---------------------------
B ---------------------------
G ---------------------------
D -----------------------0---
A --5h7-5h7------------2-----
E --0---0---5-3-0--3-5-------

Solo:

Tremelo pick

e --------------------------|--------------------------
B --------------------------|--------------------------
G --2br---------------------|--2br---------------------
D --------------------------|--------------------------
A --------------------------|--------------------------
E --------------------------|--------------------------

e --------------------------|--------------------------
B --------------------------|--------------------------
G --14br-14br-14br-14br-----|--14br-14br-14br-14br-----
D --------------------------|--------------------------
A --------------------------|--------------------------
E --------------------------|--------------------------

Break:

e --------------------------|
B --------------------------|
G --------------------------|
D -9---9--------------------|  x4
A --------------------------|
E ---7---7------------------|

e --------------------------|
B --------------------------|
G --------------------------|
D --------------------------|  x3
A ---7-----7----------------|
E -----0-----0--------------|

then...
e ----------------------------|
B ----------------------------|
G ----------------------------|
D -------7--------------------| 
A -5h7---5--------------------|
E -----0----------------------|

Breakdown (slightly different from the Chorus)

e ---------------------------
B ---------------------------
G ---------------------------
D --9---9----------------0---
A --7---7-------2------2----- x4
E --0---0---5-3-0--3-5-------

End Notes

e ---------------------------
B ---------------------------
G ---------------------------
D --/9---9------------------
A --/7---7------------------
E ---0---0-------------------

Structure:

Intro
Verse x 11
Pre-chorus
Chorus x 4
Solo
Verse x 7
Pre-chorus
Chorus x 8
Break
Breakdown
Chorus x 8
End Notes

The end.

Important: The song above is NOT stored on the Chordie server. The original song is hosted at www.beavertabs.com. Chordie works as a search engine and provides on-the-fly formatting. Chordie does not index songs against artists/composers will. To remove this song please click here.

This song is displayed as text-only. Transposing and tuning is only available for chordpro-songs.

Login - add to songbook

Rating click stars to rate

Layout
Accuracy

SHARE PAGE  




You need to log in to post comments