Guitar Tabs, Chords and Lyrics


While My Guitar Gently Weeps v6  Beatles

----------------------------------PLEASE NOTE---------------------------------#



I [Am]look at you [Am/G]all see the [D/F#]love there that's sle[F]eping
[Am]While my gui[G]tar gently w[D]eeps [E]...
--------------------------------------------
--------------------------------------------
-14(16)-14(16)-(16)14-13-13-13(14)----------
-----------------------------------14p12-14-
--------------------------------------------
--------------------------------------------
-------------5----------
------------5--8-5------
-7(9)~--7(9)-------7-5~-
------------------------
------------------------
------------------------ 

[A]I don't know [C#m]why n[F#m]obody [C#m]told you
[Bm]how to unfold your lo[E]ve   [E/F#]     [E/G]    [E/G#]
[A]I don't know [C#m7]how so[F#m]meone co[C#m]ntrolled you
[Bm]They bought and sold [E]you .[E/F#]..   [E/G]    [E/G#]
--------5-----------8(10)8-----
------5---5-8(10)-5--------10~-
-7(9)--------------------------
-------------------------------
-------------------------------
-------------------------------
--------------------------------------
------------------13(14)13-15(17)-----
-(16)14-12h14(16)-----------------14~-
--------------------------------------
--------------------------------------
-------------------------------------- 

(heavy whammy throughout)
(2X)
-------------------------
------------------------- 

-12h14(16)14(16)~~sb14~~-
-------------------------
-------------------------
-------------------------
----------------------------------15-----15--15(17)-15(17)-15(17)~-
-----------15(17)15p13-15(17)-15~-15(17)---------------------------
-12h14(16)---------------------------------------------------------
-------------------------------------------------------------------
-------------------------------------------------------------------
-------------------------------------------------------------------
-(17)15-15(17)~--15p12-------15-15---------
-----------------------15(17)---15(17)-13~-
-------------------------------------------
-------------------------------------------
-------------------------------------------
-------------------------------------------
----------------------------------------------------------
----------------------------------------------------------
-(16)14-12h14-14(16)-14(16)-------12----------------------
----------------------------12h14----1412p10-12-10h12-10-
----------------------------------------------------------
----------------------------------------------------------
-----------------------------------17---------
--------------------------------17-17-20(22)~-
-------12h14-14/17-17/19-19(21)---------------
-12h14----------------------------------------
----------------------------------------------
---------------------------------------------- 

(I don't know how you were diverted ect)

--------------------------------------------
--------------------------------------------
-14(16)-14(16)-(16)14-13-13-13(14)----------
-----------------------------------14p12-14-
--------------------------------------------
--------------------------------------------
---------------------------------------------------------
---------------------------------------------------------
-7(9)~~-7(9)~~-7(9)~~-7(9)~~-7(9)~~-7(9)~~-7(9)~~-7(9)~~-
---------------------------------------------------------
---------------------------------------------------------
---------------------------------------------------------
--------------------5-5-5---8(10)-5----------
-8(10)~-8(10)~--------5---5------------------
---------------7(9)-----------------7(9)-5~~-
---------------------------------------------
---------------------------------------------
---------------------------------------------
----------------------------------------------------
----------------------------------------------------
-----5~~-/17-17(19)17~-(19)17-(19)17-17-14/17-17p14-
-5h7------------------------------------------------
----------------------------------------------------
----------------------------------------------------
-----------------------------17-------------------------
--------------------------------17h20-19p17----20(22)~~-
-14-14h17-17-17-17/19-19(21)----------------------------
--------------------------------------------19----------
--------------------------------------------------------
--------------------------------------------------------
--------------------------------------17----17----------17-----
-20(22)-(22)20-20(22)~sb(20)-------20----20----------17----20~-
-----------------------------19(21)------------19(21)----------
---------------------------------------------------------------
---------------------------------------------------------------
---------------------------------------------------------------
--------------------------
--------------------------
-19(21)19-17-19-------17~-
----------------17h19-----
--------------------------
--------------------------
------------------------------------------------------------------
-----------5-8------------------5-8-----------------------8(10)~~-
-5/7-7(9)~-----7(9)7-5~~--7(9)7-----7(9)7-5h7p5-7p5-7-5h7---------
------------------------------------------------------------------
------------------------------------------------------------------
------------------------------------------------------------------ 

(fade)


Important: The song above is NOT stored on the Chordie server. The original song is hosted at www.beavertabs.com. Chordie works as a search engine and provides on-the-fly formatting. Chordie does not index songs against artists/composers will. To remove this song please click here.

Text color:
Chord color:
Chord grids: 
Font size:    
Page size: 

A Am Bm C#m C#m7 D D/F# E E/F# E/G E/G# F F#m G
variations - click chord images

Login - add to songbook

Transpose chords

Tuning

Rating click stars to rate

Layout
Accuracy

SHARE PAGE  




You need to log in to post comments