Guitar Tabs, Chords and Lyrics


Show Me How to Live Correct v1   Audioslave





#------------------------------------------------------------------------------#


Song: Show Me How To Live
Artist: Audioslave
Album: Audioslave
Tabbed by: Joe ( joeandlcs1@yahoo.com )


I GOT TIRED OF WAITING FOR SOMEONE TO POST A RIGHT VERSION OF THIS SONG SO I DID CUASE
ALL THE OTHER ONES WERE CRAP. DON’T EMAIL ME WITH CORRECTIONS EMAIL WITH QUESSTIONS,
COMMENTS OR OTHER TABS YOU MIGHT WANT, BECAUSE THIS TAB IS 100% RIGHT AND WHEN I SAY 
THAT I MEAN THAT. HAVE FUN WITH THE TAB.I’LL POST LIKE A STONE LATTER.     JOE


INTRO
E----10----------------------
B----10----------------------   
G----10-----------------------
D----10-12-------------------- HIT AT THE SAME TIME
A----10-12-------------------- 
E----10----------------------- BAR THE TENTH FRET AND USE YOUR PINKEY AND 
                               RING FINGER
                               TO HOLD DOWN THE TWELVETH FRET
E----------------------
B----------------------
G---------------------
D----2----------------         LET THIS RING ESEPICALLY THE OPEN STRING
A----2-----------------
E----0-----------------  
       DO THIS 4X 

TRY TO QUITE THE SLIDE WHEN YOU MOVE BY PICKING YOUR FINGERS UP


PRE CORUS
E--------------------------------------------------------------------------------
B--------------------------------------------------------------------------------
G--------------------------------------------------------------------------------
D------2-------------------------h-----------------------------2-----------------
A--h--2-------------------------0-1-0-----0------0---------h--2------------------
E-0-2----x-0--2--x-x-0--2---x-x-------x-x---2--2---0--0---0-2----x-0--2--x-x-0—2

PLAY THIS 2 TIMES REGULARLY THEN PLAY IT 4 TIMES PM


CHORUS 
E-----------------------------------------------------
B-----------------------------------------------------
G-----------------------------------------------------
D-2--5---------------h--------------------------------    X8
A-2--5-----p----p---5-7-------------------------------
E-2--5-0--2-0--2-0------0-----------------------------










VERSE RIFF/ PRE CORUS
E--------------------------------------------------------------------------------
B--------------------------------------------------------------------------------
G--------------------------------------------------------------------------------
D------2-------------------------h-----------------------------2-----------------
A--h--2-------------------------0-1-0-----0------0---------h--2------------------
E-0-2----x-0--2--x-x-0--2---x-x-------x-x---2--2---0--0---0-2----x-0--2--x-x-0—2
 
 X2 PM


CHORUS 
E-----------------------------------------------------
B-----------------------------------------------------
G-----------------------------------------------------
D-2--5---------------h--------------------------------    X8
A-2--5-----p----p---5-7-------------------------------
E-2--5-0--2-0--2-0------0-----------------------------


SOLO
E-0-0-0-0-0-0-0-0-0-0-0-0-0-0-0-0-0-0-0-0-0-0-0-0-0-
B---------------------------------------------------
G---------------------------------------------------
D---------------------------------------------------
A---------------------------------------------------
E---------------------------------------------------

JUST DO THIS FOR 20 SECONDS BECAUSE THE TIMING IS HARD TO COUNT 
THIS HAS SOME WEIRD EFFECTS SO JUST TRY TO UPSTROKE AND DOWNSTROKE IT REALLY FAST
AND IT SOUND LIKE IT.


E--0--
B--0--
G--0--
D-----
A-----
E-----

THEN BACK TO THE INTRO 


INTRO
E----10----------------------
B----10----------------------
G----10-----------------------
D----10-12--------------------    
A----10-12--------------------        X4
E----10-----------------------

E----------------------
B----------------------
G---------------------
D----2----------------    LOOK AT THE TOP FOR INSTRUCTIONS ON HOW TO PLAY THIS PART
E----0-----------------  





THE BACK TO THE CHORUS

CHORUS 
E-----------------------------------------------------
B-----------------------------------------------------
G-----------------------------------------------------
D-2--5---------------h--------------------------------    X8
A-2--5-----p----p---5-7-------------------------------
E-2--5-0--2-0--2-0------0-----------------------------




THE AT THE END OF THE SONG IT GOES LIKE

E-------------------------------------------------------------
B---------------------------------------------------------------
G----2--------2--------2--------2--------2--------2--------2------
D-2--2-----2--2-----2--2-----2--2-----2--2-----2--2-----2--2-----
A-2--2-----2--2-----2--2-----2--2-----2--2-----2--2-----2--2-----
E-2------- 2------- 2------- 2------- 2------- 2------- 2-------




AND THEN AT THE VERY END OF THE SONG IT GOES


E--0---
B--0---
G------
D------
A------
E------

Important: The song above is NOT stored on the Chordie server. The original song is hosted at www.beavertabs.com. Chordie works as a search engine and provides on-the-fly formatting. Chordie does not index songs against artists/composers will. To remove this song please click here.

This song is displayed as text-only. Transposing and tuning is only available for chordpro-songs.

Login - add to songbook

Rating click stars to rate

Layout
Accuracy

SHARE PAGE  




You need to log in to post comments