Guitar Tabs, Chords and Lyrics


Everybody Hurts (riff) v1  R.E.M



   [D]                           [G]                                                         
E|-------2-----------2------|-------3-----------3------|
B|-----3---3-------3---3----|---------3-----------3----|
G|---2-------2---2-------2--|-----0-----0-----0-----0--|
D|-0-----------0------------|---0-----------0----------|
A|--------------------------|--------------------------|
E|--------------------------|-3-----------3------------|

Fill 1
   [G]                                                                                    
e|-------3------------------|
B|---------3----------------|
G|-----0-----0-----0-----0--|
D|---0-----------0-----0----|
A|--------------------------|
E|-3-----------3-----2------|


Riff 2
   [Em]                           [A]                                                         
E|-------0-----------0------|-------0-----------0------|
B|---------0-----------0----|---------2-----------2----|
G|-----------0-----------0--|-----2-----2-----2-----2--|
D|-----2-----------2--------|---2-----------2----------|
A|---2-----------2----------|-0-----------0------------|
E|-0-----------0------------|--------------------------|


Riff 3
   [F#]                           [Bm]                                                         
E|-------2-----------2------|-------2-----------2------|
B|---------2-----------2----|---------3-----------3----|
G|-----------3-----------3--|-----4-----4-----4-----4--|
D|-----4-----------4--------|---4-----------4----------|
A|---4-----------4----------|-2-----------2------------|
E|-2-----------2------------|--------------------------|


Riff 4
   [C]                           [G]                                                         
E|-------0-----------0------|-------3-----------3------|
B|---------1-----------1----|---------3-----------3----|
G|-----0-----0-----0-----0--|-----0-----0-----0-----0--|
D|---2-----------2----------|---0-----------0----------|
A|-3-----------3------------|--------------------------|
E|--------------------------|-3-----------3------------|


Fill 2
   [C]            [C/B]               [Am]                                                         
E|-------0-----------0------|-------0------------------|
B|---------1-----------1----|---------1----------------|
G|-----0-----0-----0-----0--|-----2-----2--------------|
D|---2-----------2----------|---2----------------------|
A|-3-----------2------------|-0-------------0----------|
E|--------------------------|--------------------------|



Intro: D, G, D, G, D (Riff 1)


Chord Formations:

D   [E]x [A]x [D]0 [G]2 [B]3 [E]2
G 3 2 0 0 3 3
Em 0 2 2 0 0 0
A x 0 2 2 2 0
[Bm]C   [2]x [2]3 [4]2 [4]0 [3]1 [2]0
C/B x 2 2 0 1 0
Am x 0 2 2 1 0

Comments/corrections? Yahoo.co.uk@mattuk2k1
(swap the parts either side of the @ - I do this to prevent spam)

Important: The song above is NOT stored on the Chordie server. The original song is hosted at www.beavertabs.com. Chordie works as a search engine and provides on-the-fly formatting. Chordie does not index songs against artists/composers will. To remove this song please click here.

Text color:
Chord color:
Chord grids: 
Font size:    
Page size: 

A Am B Bm C C/B D E Em F# G
variations - click chord images

Login - add to songbook

Transpose chords

Tuning

Rating click stars to rate

Layout
Accuracy

SHARE PAGE  




You need to log in to post comments