Guitar Tabs, Chords and Lyrics


Breakin Me Way Easy v1  Jonny Lang

Ev[C]ery day I see yo[Am]ur face I wish I'd s[G]tayed [F7]don't even know what made me
Run away it's just the way I play the game

Emotional is not a word I'd use to explain myself but now I'm down I'm down
Upon my knees Oh baby please take me back


Chorus
I [Dm]don't want to be in l[C]ove but you[F7]'re makin' me
Let me up I've had enough. Girl you're breakin' me

Repeat Into Riff once
He[C]re I am just half[Am] a man standing [G]alone [F7]feeling like I lost
my only chance at happiness when I let you go

Chorus
I [Dm]don't want to be alon[C]e thinkin' [F7]bout you girl
I got nothin' left to hold but my lonely world

Solo
vibrato vibrato vibrato
e---------------------------------------------------------------------
B---18/16/15-12h13b14b13----------------------------------------------
G-----------------------10-9-10/9---------------10--------------------
D-------------------------------10-----10-12h14---14p12-10---10h12-10-
A---------------------------------10-12-------------------------------
E---------------------------------------------------------------------
e-----------------------------------------------------|
B-----------------------------------------------------|
G------------------------------12---10----------------|
D------10-12-10h12-------------12h14--12p10-h12p10----|
A-10h14-----------x----10-14/15-----------------------|
E-----------------10h12-------------------------------|



Bridge

e-------7---------7---------7-------------|
b-----5---------5---------5-----------3---|
g---5---------5---------5-----------0---0-|
d-7-------7-6-------6-5-------5h4-------|
a-----------------------------------------|
E-----------------------------------------|

....First Time....(etc)
e-------7---------7---------7---------------------(1/3)--|
b-----5---------5---------5-----------------------(1/3)--|
g---5---------5---------5--------------------------------|
d-7-------7-6-------6-5-------5-0----------------------|
a-----------------------------------53/8----------------|
E------------------------------------------1/5h8-53-----|


The first time my heart was ever touched
Was the day I lost your love
I can feel it in my flesh and blood
My soul can only take so much

(After the Solo the first two chords use Barre forms:)
C* Am* G F7
So there it is. Why can't you give us one more try you and I could find
A way to live if you let me in one more time

Chorus
I [Dm]know you lost your f[C]aith in me but I s[F7]till believe
Can I make you understand, can I make you see
I am desperate for your love and it's breakin' me
   [C]      [Am]       [G]It's b[F7]reakin' me

C* Am* G F7
-------------  -----------  -----------  -----------                                               

8 10 10 9 8 8 5 7 7 5 5 5 3 2 0 0 3 3 1 3 1 2 1 1

    [C]                                                                                                                                                     
e---------|
B-0h1-1---|
G-----0---|
D---------|
A-3---3---|
E---------| Use this C for the first part of the song


   [Am]                                                                                                                                                      
e--------|
B--3p1-1-|
G--2---2-|
D--------|
A--0---0-|
E--------| Use this Am for the first part of the song, with the hammer on thing.                                                         			       

Important: The song above is NOT stored on the Chordie server. The original song is hosted at www.beavertabs.com. Chordie works as a search engine and provides on-the-fly formatting. Chordie does not index songs against artists/composers will. To remove this song please click here.

Text color:
Chord color:
Chord grids: 
Font size:    
Page size: 

Am C Dm F7 G
variations - click chord images

Login - add to songbook

Transpose chords

Tuning

Rating click stars to rate

Layout
Accuracy

SHARE PAGE  




You need to log in to post comments