Guitar Tabs, Chords and Lyrics


No One Knows v10   Queens Of The Stone Age





#------------------------------------------------------------------------------#

No One Knows

Tuning: C F Bb Eb G C

INTRO:
|--------------------------------------------|
|--8------8------8------8--------------------|
|--9------9------9------9--------------------|
|--9------9------9------9--------------------|
|--7------7------7------7--------------------|
|--------------------------------15/---------|

MAIN RIFF:
|------------------------|------------------------------|
|-----10----10--8--------|--10----10--8-----------------|
|-------------------9----|----------------9-------------|
|------9----9---9---9----|---9----9---9---9-------------|
|------7----7---7---7----|---7----7---7---7-------------|
|--0---------------------|--------------------15/-------|

|------------------------|------------------------------|
|-----10----10--8--------|--10----10--8-----------------|
|-------------------9----|----------------9-------------|
|------9----9---9---9----|---9----9---9---9-------------|
|------7----7---7---7----|---7----7---7---7-------------|
|--0---------------------|--------------------15/-------|

|------------------------|------------------------------|
|-----10----10--8--------|--10----10/12--10-------------|
|-------------------9----|------------------------------|
|------9----9---9---9----|---9----9---------------------|
|------7----7---7---7----|---7----7---------------------|
|--0---------------------|--------------------15/-------|

|------------------------|---------------------------------|
|-----10----10--8--------|--10----10--8-------8------------|
|-------------------9----|----------------9---9------------|
|------9----9---9---9----|---9----9---9---9---9------------|
|------7----7---7---7----|---7----7---7---7----------------|
|--0---------------------|---------------------------------|

VERSE I:
|--------------------------------------------|
|-----8-------8-------8-------8--10--8-------|
|-----9-------9-------9-------9---9--9-------|
|-----9-------9-------9-------9---9--9-------|
|-----7-------7-------7-------7---7--7-------|
|-0-------0-------0-------0------------------|

|----------------------------------------------------------------|
|----------------------------------------------------------------|
|--8--8--8--8--8--8--8-------12--12--12--12--12--12--12--12------|
|--9--9--9--9--9--9--9--7h9--13--13--13--13--13--13--13--13------|
|--9--9--9--9--9--9--9--7h9--13--13--13--13--13--13--13--13------|
|--7--7--7--7--7--7--7--7----11--11--11--11--11--11--11--11------|

|------------------------|------------------------------|
|-----10----10--8--------|--10----10--8-----------------|
|-------------------9----|----------------9-------------|
|------9----9---9---9----|---9----9---9---9-------------|
|------7----7---7---7----|---7----7---7---7-------------|
|--0---------------------|--------------------15/-------|

|------------------------|---------0-----------|
|-----10----10--8--------|---8-----4bend-------|
|-------------------9----|---------------------|
|------9----9---9---9----|---9-----------------|
|------7----7---7---7----|---7-----------------|
|--0---------------------|---------------------|

VERSE II: 
|--------------------------------------------|
|-----8-------8-------8-------8--10--8-------|
|-----9-------9-------9-------9---9--9-------|
|-----9-------9-------9-------9---9--9-------|
|-----7-------7-------7-------7---7--7-------|
|-0-------0-------0-------0------------------|

|--------------------------------------------------------------------------|
|-----10------10------10------10-------------------------------------------|
|--8---8---8---8---8---8---8---8-------12--12--12--12--12--12--12--12------|
|--------------------------------------13--13--13--13--13--13--13--13------|
|--9---9---9---9---9---9---9---9---9-/-13--13--13--13--13--13--13--13------|
|--7---7---7---7---7---7---7---7---7-/-11--11--11--11--11--11--11--11------|

|------------------------|-----------------------------------|
|-----10----10--8--------|--10----10-------------------------|
|-------------------9----|-----------------------------------|
|------9----9---9---9----|---9----9--------------------------|
|------7----7---7---7----|---7----7-----------7--------------|
|--0---------------------|--------------0h5/7h9---9p7p-0-----|

|------------------------|------------------------------|
|-----10----10--8--------|--10----10--8-----------------|
|-------------------9----|----------------9-------------|
|------9----9---9---9----|---9----9---9---9-------------|
|------7----7---7---7----|---7----7---7---7-------------|
|--0---------------------|--------------------15/-------|

|----------------------------7----------------------------------------------|
|-----10------10------10--10----10------------------------------------------|
|--8---8---8---8---8---8---8----8-------12--12--12--12--12--12--12--12------|
|---------------------------------------13--13--13--13--13--13--13--13------|
|--9---9---9---9---9---9---9----9---9-/-13--13--13--13--13--13--13--13------|
|--7---7---7---7---7---7---7----7---7-/-11--11--11--11--11--11--11--11------|

|------------------------|-----------------------12------|
|-----10----10--8--------|--10----10--8----10b-----------|
|-------------------9----|--------------------------9~---|
|------9----9---9---9----|---9----9---9------------------|
|------7----7---7---7----|---7----7---7------------------|
|--0---------------------|--------------------15/--------|

|------------------------|------------------------|
|-----10----10--8--------|--10----10--8-----------|
|-------------------9----|----------------9-------|
|------9----9---9---9----|---9----9---9---9-------|
|------7----7---7---7----|---7----7---7---7-------|
|--0---------------------|------------------------|

CHORUS 2X
|------------------------------------------------------------------|
|------------------------------------------------------------------|
|--9--11-12-11---14--12---16--14-----------------------------------|
|----------------------------------9--7--9--7--9--7--9--7--9--7----|
|--7--9--10--9---12--10---14--12---9--7--9--7--9--7--9--7--9--7----|
|----------------------------------7--7--7--7--7--7--7--7--7--7----|

|-----------------------------------------------------------------|
|-----------------------------------------------------------------|
|--12-11--9--7---9--11--12-11-------------------------------------|
|---------------------------------9--7--9--7--9--7--9--7--9--7----|
|--10--9--7--5---7--9---10--9-----9--7--9--7--9--7--9--7--9--7----|
|---------------------------------7--7--7--7--7--7--7--7--7--7----|

|------------------------------------------------------------------|
|------------------------------------------------------------------|
|--9--11-12-11---14--12---16--14-----------------------------------|
|----------------------------------9--7--9--7--9--7--9--7--9--7----|
|--7--9--10--9---12--10---14--12---9--7--9--7--9--7--9--7--9--7----|
|----------------------------------7--7--7--7--7--7--7--7--7--7----|

|------------------------|------------------------------|
|-----10----10--8--------|--10----10--8-----------------|
|-------------------9----|----------------9-------------|
|------9----9---9---9----|---9----9---9---9-------------|
|------7----7---7---7----|---7----7---7---7-------------|
|--0---------------------|--------------------15/-------|

|------------------------|---------0-----------|
|-----10----10--8--------|---8-----4bend-------|
|-------------------9----|---------------------|
|------9----9---9---9----|---9-----------------|
|------7----7---7---7----|---7-----------------|
|--0---------------------|---------------------|

VERSE III. same as I and II with fill in's already tabbed above. figue out where they go

CHORUS

BRIDGE
|-------------------------------------------------------|
|-------------------------------------------------------|
|--9---9--9---9--9---9--9---9--9---9--9---9--9----------|
|--9---9--9---9--9---9--9---9--9---9--9---9--9----------|
|--7---7--7---7--7---7--7---7--7---7--7---7--7----------|
|--0---0--0---0--0---0--0---0--0---0--0---0--0----------|

|----------------------|
|----------------------|
|---------8------------|
|--9--10--8------------|
|--9--10--6--9--7--9---|
|--7--8------7--5--7---|

BASS SOLO
|-----------------------------------------------------------|
|-----------------------------------------------------------|
|--7---7--7---7--7---7--7---7--5h7--7--7---7--7---7--7---7--|
|-----------------------------------------------------------|

|------------------------------------------------------------|
|-----------------5h7--7--7----------------------------------|
|--5h7--7--7---7-------------5h7--7--7-----------------------|
|------------------------------------0--5h7--7--7------------|

GUITAR SOLO

BASS SOLO II

|-----------------------------------------------------|
|---0--12--0--12--0--12--0--12--0--12-----------------|

VERSE IV: same as II

end on.....

|------------------------------|
|--8------8------8------8------|
|--9------9------9------9------|
|--9------9------9------9------|
|--7------7------7------7------|
|------------------------------|

Tabman

Important: The song above is NOT stored on the Chordie server. The original song is hosted at www.beavertabs.com. Chordie works as a search engine and provides on-the-fly formatting. Chordie does not index songs against artists/composers will. To remove this song please click here.

This song is displayed as text-only. Transposing and tuning is only available for chordpro-songs.

Login - add to songbook

Rating click stars to rate

Layout
Accuracy

SHARE PAGE  




You need to log in to post comments