Guitar Tabs, Chords and Lyrics


Only your love will do  Jan Leyers

[


Tabed by: =pieter.desaeger@student.kuleuven.ac.be
Artist: =Jan Leyers
Songtitle: =Only your love will do
Album: =Team Spirit filmmuziek
tabsoort: = tab
Have fun playing =*=Only your love will do (Jan Leyers)
Uit de film Team Spirit

Akkoorden:
Er wordt meestal getokkeld in het nummer, en ik vind de barré-akkoorden
hieronder daarvoor het gemakkelijkst. Ik ga niet beweren dat de akkoorden
100% zoals op de cd zijn, maar op deze manier gespeeld, klinkt het toch wel
goed genoeg. Don't shoot me, het is maar een interpretatie hé.

E 022100
[D]  [557775]                                   
De akkoorden tokkel je als volgt:
E---------------------------------------------------------------------------
B-----------0----------------4--------------5-----------------4-------------
G-----------1----------------4--------------6-----------------4-------------
D-----2----------2-------4-------4-------6-------6--------6--------6--- etc.
A--------------------2---------------4--------------------------------------
E--0--------------------------------------------------4---------------------


Bij E, A, Gtweede(A) als bas.
Bij de intro spelen ze de E iets langer, zoiets als:

E--------------0------------------------------------------------------------
B--------0-----------0------------------------------------------------------
G--------1-----------1------------------------------------------------------
D-----2-----2-----2-----2---------------------------------------------------
A---------------------------------------------------------------------------
E--0------------------------------------------------------------------------


Bij de A in het vers en het refrein spelen ze ook zoals hierboven nog een
stukje bij, alvorens naar de FBij de bridge worden de vier akkoorden op de lange manier zoals hierboven
gespeeld (denk ik, anders klopt de timing niet).

Solo E B G
E---------------------------------------------------------------------------
B----7/9-----14/16--16---16/13---13/14---14---14/9---9---9---11---13---14---
G----7/9-----14/16--16---16/13---13/14---14---14/9---9---9---11---13---14---
D---------------------------------------------------------------------------
A---------------------------------------------------------------------------
E---------------------------------------------------------------------------


Midden in het nummer een slide rond je vinger toveren en nog op tijd
invallen voor het volgende stuk is vrijwel onmogelijk, maar kom, voor de
volledigheid staat 't erbij.

Wanneer de akkoorden juist moeten gespeeld worden, moet je zelf maar een
beetje voelen. De akkoorden van het vers en het refrein zijn identiek,
alleen eindigt het refrein op andere akkoorden (A B E ipv A Fzin)

Opgemaakt door Pieter De Saeger (comments to pieter_desaeger@yahoo.com)


(Intro) E (2x)
(Vers:)
Looking [E]back, [B]on the road [C[Frewind.

(Bridge:)
[D]While the sky is turning, yet a [A]darker shade of blue,
[E]I think of what it's gonna take to get, [B]close to you.

(Refrein:)
It's hard to [E]face, [B]another [Cthis slip
away.[B]
I know it [E]now, [B]I know it's [C
(Akkoorden van vers)
If my regrets, could reach your heart, you know I'd rather die than be
apart.
What is next, only time will tell. But to do without your love, is way to
hard.

(Akkoorden bridge)
And every other girl that I'm talking to, makes me realize how much I'm,
missing you.

(Akkoorden refrein)
It's hard to face, another day, and I just won't forgive myself if I let it
slip away.
I know it now, I know it's true, only your love will do.

(Akkoorden refrein)
Only your love . . . . . . yeah
Only your love
I'd be a fool, if I let this slip away

Only your love . . . . . . yeah
Only your love
Only your love will do

(Slide-solo) Zoek deze zelf maar eens

(Akkoorden bridge)
While the sky is turning, yet a darker shade of blue,
I think of what it's gonna take to get, close to you.

(Akkoorden refrein)
Only your love . . . . . . yeah
Only your love
I'd be a fool, if I let this slip away
Only your love . . . . . . yeah
Only your love
Only your love will do
Only your love will do . . . . . Oh Oh O Oh
Only your love will do


Important: The song above is NOT stored on the Chordie server. The original song is hosted at www.gitaartabs.nl. Chordie works as a search engine and provides on-the-fly formatting. Chordie does not index songs against artists/composers will. To remove this song please click here.

Text color:
Chord color:
Chord grids: 
Font size:    
Page size: 

A B D E
variations - click chord images

Login - add to songbook

Transpose chords

Tuning

Rating click stars to rate

Layout
Accuracy

SHARE PAGE  




You need to log in to post comments