Guitar Tabs, Chords and Lyrics


Angie  Roling Stones

## Dit nummer blijf eigendom van de maker zelf                  ### Dit nummer is te vinden op: www.gitaartabs.nl                #

###
          [Am]        [Am7]           [E7]                                          
|------|--0---0---3^0------|--------0-------0---0-------|
|------|--1---1---1--------|------3---3-----3-----3-----|
|------|--2---2---2--------|----1-------1---1-------1---|
|------|--2---2---2--------|--------------2-------------|
|-<12>-|-------------------|----------------------------|
|------|-------------------|-0--------------------------|


  [Csus2]             [Bbsus2]       [F]       [F]                [C]                          
|---------3---------1-1----|-1---------1----------------|
|-------3---3-------1-1----|---1------------------------|
|-----5-------5-----3-2----|--------2----------0-0------|
|-5-------------5---3-3----|------3------------3-2------|
|--------------------------|-----------------3----------|
|--------------------------|----------------------------|


  [Em7]              [Am]                                                       
|--------------------------|
|-------0-------0^1--------|
|---------0-----2----------|
|----0----------2----------|
|--2------------0----------|
|--------------------------|

Angie,
[E7]Angie
[G]When will those [F]dark clouds disap[C]pear? [E]

[Am]Angie, [E7]Angie
[G]Where were will it [F]lead us from [C]here?  [E]
With no [G]loving in our souls
and no [Dm]money in our coat[Am]s
[C]   Oh you can't [F]say we're satis[G]fied
[Am]Angie, [E7]Angie
[G]  you can't [F]say we never [C]tried

Angie you're beautiful but ain't it time we said goodbye
Angie I still love you remember all those nights we cried
All the dreams we held so close seemed to all go up in smoke
Let me whisper in your ear Angie, Angie where will it lead us from here
Angie, where will it lead us from here.

(Instrumental)

Oh Angie don't you weep all your kisses still taste sweet
I hate that sadness in your eyes but
Angie, Angie ain't it time we said goodbye

(Instrumental)

With no loving in our souls and no money in our coats
You can't say we're satisfied
But Angie, Angie, I still love you baby.

but [Dm]Angie, I still love you [Am]baby
[Dm]   Every where I look I see your [Am]eyes
[Dm]   There ain't a woman that comes [Am]close to you
[C]   Come on [F]baby dry your [G]eyes

Angie, Angie
Ain't it good to be alive
Angie, Angie
They can't say we never tried


Important: The song above is NOT stored on the Chordie server. The original song is hosted at www.gitaartabs.nl. Chordie works as a search engine and provides on-the-fly formatting. Chordie does not index songs against artists/composers will. To remove this song please click here.

Text color:
Chord color:
Chord grids: 
Font size:    
Page size: 

Am Am7 Bbsus2 C Csus2 Dm E E7 Em7 F G
variations - click chord images

Login - add to songbook

Transpose chords

Tuning

Rating click stars to rate

Layout
Accuracy

SHARE PAGE  




You need to log in to post comments