Guitar Tabs, Chords and Lyrics


BRING IT ON HOME TO ME  Animals

----------------------------------


[#]   [12] 8
         If you e[G]ver change your m[D]ind
         About le[G]aving, l[G7]eaving me b[C]ehind
         Oh, b[G]ring it to me
         B[D]ring your sweet l[C]oving
         B[D]ring it on home to [G]me
         (yeah, y[C]eah, yeah,   y[G]eah, yeah, y[D]eah)
(Bass : )
     [G]           [D]           [C]  [D]                                                            
 E |----------|----------|-----------|
 B |----------|----------|-----------|
 G |----------|----------|-----------|
 D |----------|---4-7-47-|---2-5-25--|
 A |---2-5-25-|-5--------|-3---------|
 E |-3--------|----------|-----------|

(Solo :)
                  [G]                  [D]                  [G]          [C]                         
E |------------||-----------------|-----------------|---------|-0--------------|
B |------------||-0-0-------------|-0---------------|-3-3--3-4|---1------------|
G |----------0-||---------------0-|---2-----------0-|---------|---------------0|
D |-0-0-0--2---||------0-0-0--2---|------0-0-0--2---|---------|------0-0-0--2--|
A |------------||-----------------|-----------------|---------|----------------|
E |------------||-----------------|-----------------|---------|----------------|

    [G]            [D]              [C]           [D]               [G]   [C]             [G]    [D]             
E |-------------------------|-------------------------|---------------|-------||
B |-0---------0-------------|-------------------------|---------------|-------||
G |---------0---2---------2-|-0---------0-----------0-|-0-----------0-|-0-----||
D |---0-0-0-------0-0-0-4---|---------2---4-0-0-0-2---|----0-0-0--2---|-----0-||
A |-------------------------|---3-3-3-----------------|---------------|-------||
E |-------------------------|-------------------------|---------------|-------||

Verse 2: You know I laughed, when you left
But now I know, I only hurt myself
Oh, oh, bring it to me, bring your sweet loving
Bring it on home to me
Verse 3: I'll give you jewelry, money too
And that's not all, all I'd do for you
Oh, oh, bring to me, bring your sweet loving
Bring it on home to me
Verse 4: You know I'll always be your slave
till I'm dead, and buried in my grave
Oh, oh, bring to me, bring your sweet loving
Bring it on home to me
Verse 5 = 1
*******************************************************************************
Keep rockin !
Max ( Max_Guitarplayer@hotmail.com )
*******************************************************************************

Important: The song above is NOT stored on the Chordie server. The original song is hosted at www.guitaretab.com. Chordie works as a search engine and provides on-the-fly formatting. Chordie does not index songs against artists/composers will. To remove this song please click here.

Text color:
Chord color:
Chord grids: 
Font size:    
Page size: 

C D G G7
variations - click chord images

Login - add to songbook

Transpose chords

Tuning

Rating click stars to rate

Layout
Accuracy

SHARE PAGE  




You need to log in to post comments