Guitar Tabs, Chords and Lyrics


WAR PIGS   Black Sabbath


style="COLOR: #000000; FONT-SIZE: 11px;">Intro
              ^^^^^^^^^^                ^^^^^^^
|------------------------------------------------------|
|------------------------------------------------------|
|------------------------------------------------------|
|-----------------------6-6h7-6--- ------------6-6h7-6-|
|-7-7-5p7-75-5---5-----7-7---7-5h7-7p5-5------7-7---7-|
|-0-0-0---0-------------0-0---0-0---0----------0-0---0-|


	 intro to verse
|--------------------------------------------------12----|
|--------------------------------------------------12----|
|-----------------4p2p0-----------0h2p0h2p0--------12----|
|-7/9------7/9---------2p0-7/9--------------7/9-------7/9|
|-5/7------5/7-------------5/7--------------5/7-------5/7|
|--------------------------------------------------------|


	interlude
|-----------------------------------------------------|
|-----------------------------------------------------|
|--------------12^---------------------12h14p12h14p12-|   repeat a few times
|-----------------------------------------------------|
|--17-16-15-14-----12-14---17-16-15-14----------------|
|--15-14-13-12-----10-12---15-14-13-12----------------|



	Bridge
|-------------12---------------|
|-------------12---------------|
|-------------12---------------|    Repeat a few times
|------------------------------|
|------------------------------|
|-x0-x0-x0-x0----x0-x0-x0-3^^^-|



	Bridge part 2
|-------------------------------|
|-------------------------------|
|-------------------------------|
|-------------2p0----------2p0--|
|-------------------------------|
|-x0-x0-x0-x0-----x0-x0-x0----3-|

1st solo:
|-----------------------------------------------------------------------------------
|-----------------------------------------------------------------------------------
|-----------------------------------------------------------------------------------
|-----------------------------------------------------------------------------------
|11h12---12p11---117---75---5/7----7p5---5h7---7/11---11/12---12p11---11h12--12/14
|------0-------0------0-----0------------0-----0------0-------0-------0-------0-----


|----------------------------------------------12-----12-----------
|--------------------------------------------12-----12--15^-15^----
|-------------------------12----------12--14^----14^---------------
|------12h14-14------12h14-------12h14-----------------------------
|-12h14---------12h14-------12h14----------------------------------
|------------------------------------------------------------------


|-12-----------------|--------------------|----------12----15^--
|---15-12---12-15p12-|----15p12---15p12---|-15p12--12--15^------
|--------14^---------|---------14------14-|------14-------------
|--------------------|--------------------|---------------------
|--------------------|--------------------|---------------------
|--------------------|--------------------|---------------------


|-15^-15^-15^-12----|-12--12-------------|----------------------------
|----------------15-|-------15-15p12--12-|-15p12----------------------
|-------------------|---------------14---|------14-14p12--12----------
|-------------------|--------------------|--------------14---14---14--
|-------------------|--------------------|----------------------------
|-------------------|--------------------|----------------------------


|----------------------------|-----------|---------------------
|-7--7--7--7-----------------|-----------|---------------------
|-9^-9^-9^-9^-^9--7---7h9~~--|-----7h9~~-|-----7h9~~-9---7-9---
|-------------------9--------|-7h9-------|-7h9-----------------
|----------------------------|-----------|---------------------
|----------------------------|-----------|---------------------


|-----------------------------|----------------|-----------
|-----------------------------|-7--7--7--7-----|-----------
|-11r9p7h9p7h9-( x 10 )--11p9-|-9^-9^-9^-9^-^9-|-9p7-7h9~~-
|-----------------------------|----------------|-----------
|-----------------------------|----------------|-----------
|-----------------------------|----------------|-----------

|---------------------------------------------------------------
|---------------------------------------------------------------
|---------------------------------------(1/2 step)--------------
|---------------------------------------------------------------
|11h12---12p11---117---75---5/7-----6^-6^-6^-6^--( x 2 )------
|------0-------0------0-----0-----------------------------------




2nd solo:
|--------------------------------------------------------
|--------------------------------------------------------
|-------7-------7---7--------7-------7---7--9-----7------
|---9-------9-----9------9-------9-----9----9--9--7------
|-7---7---7---7--------7---7---7---7--------7--9--5------
|----------------------------------------------7---------


|-------------------------------------------------------
|-------------------------------------------------------
|-------7-------7---7--9--12--9-------------------------
|---9-------9-----9----9--12--9-------------------------
|-7---7---7---7--------7--10--7-------------------------
|-------------------------------------------------------


|---------------------|---------------------|---------------------|--
|---------------------|---------------------|---------------------|--
|-------7-------7---7-|-------5-------5---5-|-------3-------3---3-|--
|---9-------9-----9---|---7-------7-----7---|---5-------5-----5---|--
|-7---7---7---7-------|-5---5---5---5-------|-3---3---3---3-------|--
|---------------------|---------------------|---------------------|--


|--------------|------------------------------------------------------
|--------------|------------------------------------------------------
|--------------|------------------------------------------------------
|-9---10-10-9--|-------4-5-4h5-4---4-----------4-5-7-7---9-9----------
|-9---10-10-9--|--5h7----------------5---5-5h7------------------------
|-7----8--8-7--|--0--------------------7---0--------------------------


|-------------------------------|----------|----------------
|-------------------------------|----------|-------( x 8 )--
|-4/7-7h9-9---7h9-9^-9^-9^9-7h9-|--7---7-9-|-11r9p7h9p7h9---
|-------------------------------|----9-----|----------------
|-------------------------------|----------|----------------
|-------------------------------|----------|----------------


|--------------|--------------|---------------|----------------------
|-7--7--7--7---|--------------|---------------|----------------------
|-9^-9^-9^-9^9-|-7---7h9--7p9~|--7h9~~--------|-7h9~~---------7h9~~--
|--------------|---9----------|---------7h9~~-|---------7h9~~--------
|--------------|--------------|---------------|----------------------
|--------------|--------------|---------------|----------------------



|----------|---------------|---------------------|----------------|
|----------|---------------|---------------------|----------------|
|-----7h9--|------7h9--7-9-|-11r9p7h9p7----------|----------------|
|-7h9------|--7h9----------|------------9p7-7----|----------------|
|----------|---------------|------------------10-|-10-9-7-9-1097-9|
|----------|---------------|---------------------|----------------|


|------------------------------|--------------------------
|------------------------------|--------------------------
|------------------------------|--------------------------
|------------------------------|--------7-----------------
|-10p9p7--9--10p9p7--9--10p9p7-|-9--10------9h10p9p7--7---
|------------------------------|--------------------------

|------------------------------------------------------
|------------------------------------------------------
|------------------------------------------------------
|-------4-5-4h5-4---4-----------4-5-7-7---9-9----------
|--5h7----------------5---5-5h7------------------------
|--0--------------------7---0--------------------------

|--------------------------------------------------------
|--------------------------------------------------------
|-------7-------7---7--------7-------7---7---------------
|---9-------9-----9------9-------9-----9-----------------
|-7---7---7---7--------7---7---7---7------accelerate...--
|--------------------------------------------------------

Important: The song above is NOT stored on the Chordie server. The original song is hosted at www.guitaretab.com. Chordie works as a search engine and provides on-the-fly formatting. Chordie does not index songs against artists/composers will. To remove this song please click here.

This song is displayed as text-only. Transposing and tuning is only available for chordpro-songs.

Login - add to songbook

Rating click stars to rate

Layout
Accuracy

SHARE PAGE  




You need to log in to post comments