Guitar Tabs, Chords and Lyrics


THUNDER ROLLS  Garth Brooks

[Dm]Three-thirty in the morning,[Bb] not a soul in sight
[A]The city's lookin' like a ghost town on a moonless summer [Dm]night
[Dm]Raindrops on the windshield, there's a s[Bb]torm moving in
[A]He's headin' back from somewhere that he never should have [Dm]been
And the thunder rolls, [C]     [C/B]     [A]    and the thunder rolls[Dm]
W/Slide *FeedBack*
|-------------|---------------------------------
|-------------|---------------------------------
|-------------|-7--------(7)\------------------
|-------5//7--|-7--------(7)\------------------
|-------------|---------------------------------
|-------------|---------------------------------

Every light is burnin', in a house across town
She's pacin' by the telephone in her faded flannel gown
|-----------------|-----------------------------
|-----------------|-----------------------------
|-----9/10\\\9-|--5//7---(7)~~~~~~~~~~-------
|-----------------|-----------------------------
|-----------------|-----------------------------
|-----------------|-----------------------------

Askin' for a miracle, hopin' she's not right
Prayin' it's the weather that's kept him out all night
|-----------------------------------------------
|-----------------------------------------------
|-----------7\\\------5----------------------
|---5/7------------\\\5----------------------
|-----------------------------------------------
|-----------------------------------------------

And the thunder rolls[C],   [C/B]     [A] and the thunder rol[Dm]ls[C] [Dm]
CHORUS
And the thunder [Bb]rolls [C]   and the lightnin' st[Dm]rike[C]s[Dm]
Another love grows [Bb]cold   [C]  on a sleepless ni[A]ght[G] [A]
|-----------------------------------------------
|--------------12/14----------------------------
|-----12/14-----------12/14~~~~~----------------
|-----------------------------------------------
|-----------------------------------------------
|-----------------------------------------------

As the storm blows [Bb]on  [C]    out of control[Dm] [C] [Dm]
Deep in her [Bb]heart[C]     the thunder [Dm]rolls
|-10~~~~~~~~~~~~~----------|--------------------
|--------------------------|--------------------
|-------------------10\9-|--5////7------------
|------------------------- |--------------------
|--------------------------|--------------------
|--------------------------|--------------------

She's waitin' by the window when he pulls into the drive
She rushes out to hold him thankful he's alive
|-----------------------------------------------
|--10----(10)\\-3----------------------------
|-----------------------------------------------
|-----------------------------------------------
|-----------------------------------------------
|-----------------------------------------------

But on the wind and rain a strange new perfume blows
And the lightnin' flashes in her eyes and he knows that she knows
And the thunder rolls,
|-----------------------------------------------
|-----------------------------------------------
|--5-------4/5---4------2-----------------------
|-----------------------------------------------
|-----------------------------------------------
|-----------------------------------------------

and the thunder rolls
|-------------------6-------------|------------
|---------------------5-----------|------------
|--7----5---7-------------7---5~~~-|---7--7--7--
|--7----5---7----------------------|---7--7--7--
|----------------------------------|------------
|----------------------------------|------------

CHORUS
And the thunder [Bb]rolls [C]   and the lightnin' st[Dm]rike[C]s[Dm]
|-9/10---12/13---10-----------------------------
|----------------10-----------------------------
|-----------------------------------------------
|-----------------------------------------------
|-----------------------------------------------
|-----------------------------------------------

Another love grows [Bb]cold   [C]  on a sleepless ni[A]ght[G] [A]
|-10/12-----------------------------------------
|--------13/14----------------------------------
|---------------14~~~~--------------------------
|-----------------------------------------------
|-----------------------------------------------
|-----------------------------------------------

As the storm blows [Bb]on  [C]    out of control[Dm] [C] [Dm]
|--/17------------------------------------------
|-------17/18-----------------------------------
|--------------19~~~~~--------------------------
|-----------------------------------------------
|-----------------------------------------------
|-----------------------------------------------

Deep in her [Bb]heart[C]     the thunder [Dm]rolls
OUTRO
|-10~~~~~~~~~~~~~~~~~~~~~~~---------------------
|-------------------------------10--------------
|-------------------------------------5/7-------
|-----------------------------------------------
|-----------------------------------------------
|-----------------------------------------------
|---------------------------------8/10----------
|------------------------8/10-------------------
|--------------7~~~~~---------------------------
|--5/////7--------------------------------------
|-----------------------------------------------
|-----------------------------------------------
|---(10)85-----------|-----13-----(13)10-----
|-----------5/6--------|------------------------
|---------------7~~~~--|------------------------
|----------------------|------------------------
|----------------------|------------------------
|----------------------|------------------------

chords used:
E A D G B e
Dm x 5 7 7 6 5
Bb x 1 3 3 1 1
A x 0 2 2 0 0
C x 3 2 0 1 0
C/B x 2 2 0 1 0
[G]            [3]  [5]  [5]  [4]  [3]  [3]  NMUTTI@STUDENT.UMASS.EDU

Important: The song above is NOT stored on the Chordie server. The original song is hosted at www.guitaretab.com. Chordie works as a search engine and provides on-the-fly formatting. Chordie does not index songs against artists'/composers' will. To remove this song please click here.

Text color:
Chord color:
Chord grids: 
Font size:    
Page size: 

A Bb C C/B Dm G
variations - click chord images

Login - add to songbook

Transpose chords

Tuning

Rating click stars to rate

Layout
Accuracy

SHARE PAGE  




You need to log in to post comments