Guitar Tabs, Chords and Lyrics


MUSICAL BOX  Genesis

|--------------|


|------2-------|


|------3-------|


|------4-------|


|--------------|


|--------------|


|--------------|


|--------------|


|--------------|


|--2--------2--|

[F#]                     [C#sus4]           [F#]    [C#sus4]                                                                                                             
---6--------6--7--6---4---4-----6--7--6-----6--7--6---4---------
---7--------7--7--7---7---7-----7--7--7-----7--7--7---7---------
---6--------6--6--6---6---6-----6--6--6-----6--6--6---6---------
---4--------4--4--4---6---6-----4--4--4-----4--4--4---6---------
---4--------4--4--4---4---4-----4--4--4-----4--4--4---4---------
----------------------------------------------------------------

  [Bm]                               [F#]                                                                                                                
-----2-------2-------2-------2-------2--------2-------2-------2---
---3---3---3---3---3---3---3---3---2---22---2---2---2---2---2---2-
-4-------4-------4-------4-------3--------3-------3-------3-------  x 2
------------------------------------------------------------------
------------------------------------------------------------------
------------------------------------------------------------------

Play me Old King Cole
That I may join with you,
[F#m]                                  [D]                  [E]                                                        
|--------------------------------------2-------2---------4-------4----|
|------2-------2-------2-------2-----3---3---3---3-----5---5---5---5--|
|----2---2---2---2---2---2---2---2-2-------2-------2/4-------4--------|
|--4-------4-------4-------4------------------------------------------|
|---------------------------------------------------------------------|
|---------------------------------------------------------------------|

All your hearts now seem so far from me
   [D]                                [A]                                                                          
|------2-------2-------2---4---2-------0-------0-------0-------0----|
|----3---3---3---3---3---3---3---3---2---2---2---2---2---2---2---2--|
|--2-------2-------2---------------2-------2-------2-------2--------|
|-------------------------------------------------------------------|
|-------------------------------------------------------------------|
|-------------------------------------------------------------------|

It hardly seems to matter now.
  [A]                                                                                                           
|------0-------0-------0-------0------|
|----2---2---2---2---2---2---2---2----|
|--2-------2-------2-------2----------|
|-------------------------------------|
|-------------------------------------|
|-------------------------------------|

| |
                |---------------------|
                |-----------------/4--|
                |----------0---4------|
                |--2---4--------------|

G[Bm]uitar 1[F#]
|-----2-------2-------2-------2-------2-------2-------2-------2---|
|---3---3---3---3---3---3---3---3---2---2---2---2---2---2---2---2-|
|-4-------4-------4-------4-------3-------3-------3-------3-------|
|-----------------------------------------------------------------|
|-----------------------------------------------------------------|
|-----------------------------------------------------------------|

| Guitar 2 |
E---------------------------------------------------7p6-----64---|
B-------------------------------------------------------7---------|

And the nurse will tell you lies
G[Bm]uitar 1[F#]
|-----2-------2-------2-------2-------2-------2-------2-------2---|
|---3---3---3---3---3---3---3---3---2---2---2---2---2---2---2---2-|
|-4-------4-------4-------4-------3-------3-------3-------3-------|
|-----------------------------------------------------------------|
|-----------------------------------------------------------------|
|-----------------------------------------------------------------|

| Guitar 2 |
E---------------------------------------------------7p6---6-6/9-9-|
B-------------------------------------------------------7---------|

Of a kingdom beyond the skies.
[F#m]                                  [D]                  [E]                                                        
|--------------------------------------2-------2---------4-------4----|
|------2-------2-------2-------2-----3---3---3---3-----5---5---5---5--|
|----2---2---2---2---2---2---2---2-2-------2-------2/4-------4--------|
|--4-------4-------4-------4------------------------------------------|
|---------------------------------------------------------------------|
|---------------------------------------------------------------------|

But I am lost within this half-world.
   [D]                                [A]                                                                         
|------2-------2-------2---4---2-------0-------0-------0-------0----|
|----3---3---3---3---3---3---3---3---2---2---2---2---2---2---2---2--|
|--2-------2-------2---------------2-------2-------2-------2--------|
|-------------------------------------------------------------------|
|-------------------------------------------------------------------|
|-------------------------------------------------------------------|

It hardly seems to matter now. | Guitar 2 |
E---1914--|
  [A]                                                                                                          
|------0-------0-------0-------0------|
|----2---2---2---2---2---2---2---2----|
|--2-------2-------2-------2----------|
|-------------------------------------|
|-------------------------------------|
|-------------------------------------|
|--14--14-12--12--14-12--141414-9---9--------12---14-12---14-12-----14--|
|----14--------------------------11--11---------------------------------|
|----------------------------------------------13-------13------13------|
|-----------------------------------------------------------------------|
|-----------------------------------------------------------------------|
|-----------------------------------------------------------------------|

| |
|--4-5-7-7p5p4----4----6~--------------------4-5-7-7p5p4-----4------7~--|
|-------------7-5-----7---------------------------------7-5--------7----|
|------------------4-6------------------------------------------4-6-----|
|-----------------------------------------------------------------------|
|-----------------------------------------------------------------------|
|-----------------------------------------------------------------------|

Play me my song.
Here it comes again.
Play me my song.
Here it comes again.
|--------2-----2------2/3------3-2-----2-----2-----2-----0--|
|----------2-----2--------3--------2-----2-----2-------0------|
|-------------------------------------------------------------|
|--4---4-----4------4--------5-------4-----4-----4-------2----|
|----4--------------------------------------------------------|
|-------------------------------------------------------------|
|--2-----2-----2-----2/3------3-2-----2-----2-----2-----0--|
|----2-----2-----2-------3--------2-----2-----2-------0------|
|------------------------------------------------------------|
|------4-----4-----4-------5--------4-----4-----4-------2----|
|------------------------------------------------------------|
|------------------------------------------------------------|
|--2-----2-----2-----2/3------3--|
|----2-----2-----2-------3-------|
|--------------------------------|
|------4-----4-----4-------5-----|
|--------------------------------|
|--------------------------------|
|----------5-55-------5----------7-77-------7------9------9-9--10-9-9--|
|--------5---------5-----------7---------7-------------10--------------|
|------6--------6------------7--------7--------------9-----------------|
|--4-7---------------------9-------------------------------------------|
|----------------------------------------------------------------------|
|----------------------------------------------------------------------|

Just a little bit, Just a little bit more time,
|--7--5/7--7--9-7---4/5-----55----7--5----5-----55-----5--|
|----7----7--7-7----------5-----------7-5-----5------5----|
|---7----7--7-----------6------6------------6------6------|
|---------------------------------------------------------|
|---------------------------------------------------------|
|---------------------------------------------------------|

| |
|----------9-10p9-7--------------10-9---------------------|
|--9-10-12-----------9(10)-9--7-------10p9----------------|
|-----------------------------------------11--9-----------|
|----------------------------------------------12p11~-----|
|---------------------------------------------------------|
|---------------------------------------------------------|

Time left to live out my life.
|------3-------3-------3--------5-------3-------3-------3-------3----|
|----5---5---5---5---5---5----7---7---5---5---5---5---5---5---5---5--|
|--5-------5-------5-------/7-------5-------5-------5-------5--------|
|--------------------------------------------------------------------|
|--------------------------------------------------------------------|
|--------------------------------------------------------------------|

| |
E-7-8---|
Lalalala-lalalalala
|---------7-----------------------------------|
|--7---8-----8--------7--8------3---3------3--|
|---------------7--9--------4~---------4------|
|---------------------------------5------5----|
|---------------------------------------------|
|---------------------------------------------|

| |
|--17-----14-------12-14-15-------------------|
|------17----15-15----------12~---------------|
|---------------------------------------------|
|---------------------------------------------|
|---------------------------------------------|
|---------------------------------------------|
|---------7-----7--8-10--1410~---3-------3-------3----------------------|
|--7---8-----8----------------------3-------3-------3-------3-------3----|
|-------------------------------------4-------4-------4---2---2---2---2--|
|---------------------------------------5-------5-------4-------4--------|
|------------------------------------------------------------------------|
|------------------------------------------------------------------------|

| |
E--14--12----14---19-17-15-14-15~--|
B---------15-----------------------|
|-------------------------------------------------------------------|
|------3-------3---5-----5-----5---5-----5-----5---5-----5-----5----|
|----2---2---2---2---5-----5-----5---5-----5-----5---5-----5-----5--|
|--4-------4-----------7-----7---------7-----7---------7-----7------|
|-------------------------------------------------------------------|
|-------------------------------------------------------------------|

| |
|--------------------------------------------------5----------------|
|------------------5-----5-----7---8-----8-----8--------------------|
|--------------------5-----5-----5---5-----5-----5---5--------------|
|----------------------7-----7---------7-----7---------7------------|
|-------------------------------------------------------------------|
|-------------------------------------------------------------------|
|--4-----4-4-----4-4-----4-4-----4-3-----5-3-----5-3-----5-3-----5-3--|
|------5-------5-------5-------5-------5-------5-------5-------5------|
|----6-------6-------6-------6-------4-------4-------4-------4--------|
|---------------------------------------------------------------------|
|---------------------------------------------------------------------|
|---------------------------------------------------------------------|

| |
|--17---17-21-17--16-16--14-14--------17-19-17---15------15----------|
|--19---19-19-19-----19------14--14/17-17-17------17---17-17----------|
|--18---18-18-18-----18------14--14/17-17-17------17------17----------|
|---------------------------------------------------------------------|
|---------------------------------------------------------------------|
|---------------------------------------------------------------------|
|------------------------------------------------------------------------|
|--------2--------2-------2---------2-------2--------2-------2--------2--|
|----2--------2-------2--------2--------2--------2-------2-------2-------|
|--4---4---4----4---4---4---4----4----4---4---4----4---4---4---4---4-----|
|------------------------------------------------------------------------|
|------------------------------------------------------------------------|

| |
|----9-7-9----9---9---9---9----9----9---9-7-9----9---9---9---9---9----9--|
|--7-------10---9---7---9---10---12---7-------10---9---7---6---7---10----|
|------------------------------------------------------------------------|
|------------------------------------------------------------------------|
|------------------------------------------------------------------------|
|------------------------------------------------------------------------|

ritardando
|----5-------5-------5-------5-------5-------5-------5------|
|------5-------5-------5-------5-------5-------5-------5----|
|--------5-------5-------5-------5-------5-------5-------5--|
|--7-------7-------7-------7-------7-------7-------7--------|
|-----------------------------------------------------------|
|-----------------------------------------------------------|

| |
|------------12----8-----10---------------------------------|
|----------10-------10-----12------10-----------------------|
|--10-10h12----------------------12------97----------------|
|------------------------------------------------9/10-------|
|-----------------------------------------------------------|
|-----------------------------------------------------------|

[D]   [E]   [D]   [E]   [D]   [E]   [D]   [E]   [D]   [A]                                                                                                              
|--------9---------------9---------------9----------------|
|----7-------7-------7-------7-------7-------7-------7----|
|--9---9---9---9---9---9---9---9---9---9---9---9---9---9--|
|----------------7---------------7---------------7--------|
|---------------------------------------------------------|
|---------------------------------------------------------|
|---4-------4-------4-------4--------------------------------|
|.------5-------5-------5-------5---------------------------.|
|-----4---4---4---4---4---4---4---4----6-----6-----6-----6---|
|.----------------------------------4-----4-----4-----4-----.|
|------------------------------------------------------------|
|------------------------------------------------------------|

| |
|---4-5-7-7p5p4----4----6~---------4-5-7-7p5p4----4-----7~---|
|--------------7-5-----7----------------------7-5------7-----|
|-------------------4-6-----------------------------4-6------|
|------------------------------------------------------------|
|------------------------------------------------------------|
|------------------------------------------------------------|

Play me my song.
Here it comes again.
Play me my song.
Here it comes again.
[E]  [F#m]      [E]  [F#m]      [E]  [F#m]      [E]  [F#m]      [E]  [F#m]  [E] [F#m] [F#m]    [E]    [F#m]    [E]    [F#m]    [E]    [F#m]    [E]    [E]   [F#m]      [E]  [F#m]      [E]  [F#m]      [E]  [F#m]      [F#m]    [E]    [F#m]    [E]    [F#m]    [E]    [F#m]    [E]                                             
|------------------------------------5-7~----5-7~----5-7-5-7(9)----7(9)7--|
|--5-7~----5-7~----5-7~----5-7~------------------------------------7(9)7--|
|-------------------------------------------------------------------------|
|-------------------------------------------------(if there's any effect--|
|-----------------------------------------------------called hell roar,---|
|-----------------------------------------------------use it here)--------|

guitar solo
   [F#m]                                                                                                         
|------------------------------------------------------|
|-------9-9~--12-9----------------9~--12-9tr12---------|
|--6-11------------11--------6/11-----------------11~--|
|---------------------11~-----------------------11-----|
|------------------------------------------------------|
|------------------------------------------------------|

  [E]                                                                                                          
|----------------------------------------------------------------------------|
|--9h10p9-------------------------------------7h9p7-7h9p7-7h9p7-7h9p7---9tr5-|
|-9------9-7h9p7-----------------------------9-----9-----9-----9-----9-------|
|---------------9-7h9p7p6h7-6-7-6-7/9-9(11)----------------------------------|
|----------------------------------------------------------------------------|
|----------------------------------------------------------------------------|

   [D]                                                                                                         
|------------------------------------------------------------------|
|--7-9-10-10(12 )10-9-7-9~----7-9-10-10(12)-(12)10-9-10-9-7-9~/10--|
|------------------------------------------------------------------|
|------------------------------------------------------------------|
|------------------------------------------------------------------|
|------------------------------------------------------------------|

   [F#m]                                                                                                         
|--------------------------------------------------------|
|--14p10--10-15p10--10-14p10--10-15p10--10-14p10--10-15--|
|-------11--------11--------11--------11--------11-------|
|--------------------------------------------------------|
|--------------------------------------------------------|
|--------------------------------------------------------|

                                          [E]                                                                  
|----------------------------------------------------------------------------|
|-9-10-9-10-9-10-9-10-9-10-9-10-9-10-9-10-9-10-9-10-9-10-9-10-9-10-9-10-9-10~|
|----------------------------------------------------------------------------|
|----------------------------------------------------------------------------|
|----------------------------------------------------------------------------|
|----------------------------------------------------------------------------|
|-----------------------------------|
|--p9-------------------------------|
|----9--9(11)-9(11)9--9(11)-9(11)9--|
|------9-------------9--------------|
|-----------------------------------|
|-----------------------------------|

   [D]                                                             [F#m]                                            
|---------------------------------------------------------------------|
|--7-9-10-10(12)-10-9-7-9~----7-9-10-10(12)-(12)10-9-10-9-7-9~--7~~~--|
|---------------------------------------------------------------------|
|---------------------------------------------------------------------|
|---------------------------------------------------------------------|
|---------------------------------------------------------------------|

acoustic guitar:
[F#m]     [B]   [Bm]    [F#m]     [E]                                                                                                              
|----10-9---------------------|
|---10----12-10-9-------------|
|--11-------------11-9--------|
|----------------------12-11--|
|-----------------------------|
|-----------------------------|

[F#m]Old King Cole was a m[B]erry old soul
         Bm                F#m  E         |----------------------2-2--|
and the merry old soul was me             |----2--2--2-3-2-5-3-2------|
                                          |-----2---------------------|
                                          |---------------------------|
                                          |---------------------------|
                                          |--2------------------------|

So he c[F#m]alled for his pipe and he c[B]alled for his bow (bone?)
        Bm                        F#m  E       |----10-9---------------------|
and he called for his fiddlers three           |---10----12-10-9-------------|
                                               |--11-------------11-9--------|
                                               |----------------------12-11--|
                                               |-----------------------------|
                                               |-----------------------------|

   [F#m]                    [E]       [D]                                                                              
|---------------------------------------|
|----------------------------------7----|
|------------------------------------7--|
|--11-12-11-----------------------------|
|---------------------------------------|
|---------------------------------------|

| |
|---------------------------------------|
|-----------9-10-12~---9------7---------|
|------------------------9~-----7~------|
|---------------------------------------|
|---------------------------------------|
|---------------------------------------|

And the clock, tick tock, on the mantelpiece
|-----------|
|--------7--|
|--------7--|  x 4
|--4-6-7-7--|
|--------5--|
|-----------|

and I want
and I feel
and I touch
and I know ... The waaaaaaaaalll!!!!
[E] k[F#m]eyboard solo
|------------------------------------------------------------|
|--7~--5h7-5---------------------------------------------7~--|
|--------------6h7p6----4h6p4-----------------------6-6h9----|
|------------9------7-7------6--6h7h9----6-6h7h9-7h9---------|
|-------------------------------------7h9--------------------|
|------------------------------------------------------------|

[E]   [F#m]                              [E]  [F#m]                                                                         
|--9-7----7h9p7--------------------------9~--|
|------10------10-9-10h12p10-9-7-9-10-12-----|
|--------------------------------------------|
|--------------------------------------------|
|--------------------------------------------|
|--------------------------------------------|

                             [E]  [F#m]                                  [E]  [F#m/]                                         
|-----14-12------------------------------------14-12-------------14-12-------|
|--12----------12h14p12----------------------14-----12---------14-----12-----|
|-----------14---------14-13-14h16p14-13---14---------13-----14---------13---|
|----------------------------------------16-------------14-16-------------14-|
|----------------------------------------------------------------------------|
|----------------------------------------------------------------------------|

                                       [C#m]    [D]              [B]                [F#m]                                   
|----------------------------------------------------------------------------|
|---14-----12-----------------------------------------------------------tr14-|
|--14-14-----13---11~~-------------------------------------------------11tr--|
|-16----16-----14------------------------------------------------------------|
|----------------------------------------------------------------------------|
|----------------------------------------------------------------------------|

| guitar |
                 |--------------------------------7-9-10-9-12-10-9----12-14~-|
                 |-------------------------7-9-10----------------------------|
                 |-----6-------------6-7-9-------------------------11--------|
                 |-7-9---7-6---6-7-9-----------------------------------------|
                 |-----------9-----------------------------------------------|
                 |-----------------------------------------------------------|

keyboard
[E]  [F#m]                         [E]  [F#m]                        [E]  [F#m]                                                     
|----------------------------------------------------------------------------|
|----14-14-14-14-14-14-14-14-14-14-14-14-14-14-14-14-14-14-14-14-14-14-14-14-|
|--11-13-14-13-14-11~-------11-13-14-16-18~---14~---16~---13~--14-13-11-13---|
|----------------------------------------------------------------------------|
|----------------------------------------------------------------------------|
|----------------------------------------------------------------------------|

[E]  [F#m]                                                                                                         
|-------------------------------------------------|
|-------------------------------------------------|
|-------------------------------------------------|
|--7--9---11---9---7--7-9---9-11---11-13--13-13~--|
|---9--11---12--11--9----11-----12------14--------|
|-------------------------------------------------|

guitar C#m D B
|---------------------------------7-9-10-9-12-10-9----12--|

Important: The song above is NOT stored on the Chordie server. The original song is hosted at www.guitaretab.com. Chordie works as a search engine and provides on-the-fly formatting. Chordie does not index songs against artists/composers will. To remove this song please click here.

Text color:
Chord color:
Chord grids: 
Font size:    
Page size: 

A B Bm C#m D E F# F#m
variations - click chord images

Login - add to songbook

Transpose chords

Tuning

Rating click stars to rate

Layout
Accuracy

SHARE PAGE  




You need to log in to post comments