Guitar Tabs, Chords and Lyrics


No Time  Guess Who



         [D]v   v   v   v [Fmaj7/D]    v   v   v   v   [G/D] v   v   v   v     [D]v v v v
	-----------------|----------------|-----------------|-----------|
	-----------------|----------------|-----------------|-----------|
	-----------------|----------------|-----------------|-----------|
	-0---0-0-0-2---3-|----------------|-5---5-5-5-7---0-|-----------|
	-----------------|----------------|-----------------|---------3-|
	-----------------|----------------|-----------------|-----------|


         [D]v   v   v   v [Fmaj7/D]   v   v   v   v    [G/D] v   v   v   v     [D]v v v v
	-----------------|----------------|-----------------|-----------|
	-----------------|----------------|-----------------|-----------|
	---------5-7-7b9-|----------75--5-|-7-----5---------|-----------|
	---3-5-7---------|------------7---|---------5-3-----|-----------|
	-5---------------|----------------|---------------53|-5---------|
	-----------------|----------------|-----------------|-----------|


Chorus:

        ([D]No time left for[Fmaj7/D] you)          [G/D](No time left for y[D]ou)
On my way to better things I found myself some
        ([D]No time left for[Fmaj7/D] you)             ([G/D]No time left for   y[D]ou...)
wings Distant roads are calling me

Verse 1:

        [G]No time f[D]or a s[Am]ummer fri[D]end
        [G]No time f[D]or the l[Am]ove you s[D]end
        [G]Seasons cha[D]nge and [Am]so did [D]I
        You n[C]eed not wonder [Bm]why
        You n[C]eed not wonder [Bm]why
        There's [C]no time left for [Bm]you
        C                Bm   [Am]
No time left for you

[repeat intro] 

[repeat cborus] 
Verse 2:

No time for a gentle rain
No time for my watch and chain
No time for revolving doors
No time for the killing floor
No time for the killing floor
There's no time left for you
No time left for you

[repeat intro] 

[repeat verse 1] 
Coda:

        [D]No time[Fmaj7/D]  no time [G/D] no time  [D]no time [2x]
        I g[D]ot got go[Fmaj7/C]t got no time  [G/B] I got got got [D/A]got no time [rant to fade]

-- another ace 60's tab from Andrew Rogers

Important: The song above is NOT stored on the Chordie server. The original song is hosted at www.guitaretab.com. Chordie works as a search engine and provides on-the-fly formatting. Chordie does not index songs against artists/composers will. To remove this song please click here.

Text color:
Chord color:
Chord grids: 
Font size:    
Page size: 

Am Bm C D Fmaj7/C Fmaj7/D G G/B G/D
variations - click chord images

Login - add to songbook

Transpose chords

Tuning

Rating click stars to rate

Layout
Accuracy

SHARE PAGE  




You need to log in to post comments