Guitar Tabs, Chords and Lyrics


La Chispa Adecuada Live  Heroes Del Silencio

----------------------------------------------------------------------------



----------------------------------------------------------------------------

      [Dm]                         [Am]              [Bb]          [F]        [C]                                        
e| -------------------------------------------------------------------|
B| ---------------6---5---------5------------------------1------------|
G| --------------------5----------5---5-------------3------3-----3----|
D| -----------------7---------7-----7--------------------------3------|
A| ---3-3h5-5---5-----------5----------------0-1--1----1-----1--------|
E| -------------------------------------------------------------------|

      [Dm]                         [Am]              [Bb]          [F]        [Dm]                                        
e| ------------------------------------------------------------5-----|
B| ---------------6---5---------5------------------------1-----6-----|
G| --------------------5----------5---5-------------3----------7-----|
D| -----------------7---------7-----7--------------------------7-----|
A| ---3-3h5-5---5-----------5----------------0-1--1----1-------5-----|
E| -------------------------------------------------------------------|

After the second time, enters guitar 2(Acoustic). Both play the same:

      [Dm]                         [Am]              [Bb]          [F]        [C]                                        
e| -----------------------------5-------------------------------------|
B| ---------------6---5----------------------------------1------------|
G| --------------------5--------------5-------------3------3-----3----|
D| -----------------7---------7-----7--------------------------3------|
A| ---3-3h5-5---5-----------5----------------0-1--1----1-----1--------|
E| -------------------------------------------------------------------|


      [Dm]                         [Am]              [Bb]          [F]        [Dm]                                        
e| -----------------------------5------------------------------5------------|
B| ---------------6---5----------------------------------1-----6--6-5p4-----|
G| --------------------5--------------5-------------3----------7------------|
D| -----------------7---------7-----7--------------------------7--------7---|
A| --3-3h5-5---5-----------5----------------0-1--1----1-------5----------5--|
E| -------------------------------------------------------------------------|

Verse 1: (Play intro)
[Dm]  Las pala[Am]bras fueron avis[Bb]pas,
y las cal[F]les co[C]mo du[Dm]nas
cuando aun te es[Am]pero llegar..[Bb].      [F]    [C]
[Dm]  En un ataúd [Am]  guardo tu tac[Bb]to y
una coro[F]na
[C] con tu [Dm]pelo enmarañado
que[Am]riendo encontrar un
arco-ir[Bb]is    [Dm]infinito

Chorus: (No voice)
     [D]         [F#m7]           [G]           [A]                                                                   
e|-3-3-0-3---2-2-2-2---3-3-3-3---3-2-0------|
B|-2-2-2-2---2-2-2-2---3-3-3-3---3-3-2------|
G|-3-3-3-3---2-2-2-2---0-0-0-0---0-2-2------|  X2
D|-0-0-0-0---2-2-2-2---0-0-0-0---0-0-2------|
A|-----------4-4-4-4---2-2-2-2---2---0------|
E|-----------2-2-2-2---3-3-3-3---3----------|


Verse 2: (Play intro) Same Chords

Mis manos que aun son de hueso
y tu vientre sabe a pan
La catedral es tu cuerpo...
Eras verano y mil tormentas y yo
el león que sonríe a las paredes
que he vuelto a pintar del
mismo color


Chorus:
[D]  No se disti[F#m]nguir entre [G]besos y
raices [A]
[D]  No se disti[F#m]nguir lo compli[G]cado
de lo simple [A]
Y ahora est[D]as en mi [F#m]lista de
pro[G]mesas a olvidar  [A]
Todo ar[D]de si le ap[F#m]licas la chispa
ad[G]ecuada        [A]

   [Dm]Dm                  [Bb]Bb           [C]C     [Dm]Dm      [C]C   [Bb]Bb   [C]C    X2
2nd time Guit. 2 plays this:
e|--------------------------------------------------------------------|
B|--------------------------------------------------------------------|
G|-2--0------------------------------------2--0-----------------------|
D|------2-3-2--0------------0---2-3-2-----------2-2------3-3---------|
A|-----------------3--0-1--3--------------------------3---------------|
E|--------------------------------------------------------------------|


Verse 3: (Play Intro) Same Chords
El fuego que era a veces propio
la ceniza siempre ajena
Blanca esperma resbalando por
la espina dorsal
Ya somos más viejos y sinceros,
y que más da
Si miramos la "laguna"
como llaman a la eternidad
de la ausencia

Chorus

In a Rock style:
(Light distortion) *Vibrato with Whammy bar
Dm      Bb C    Ends with: e|----------~~|
Dm      Bb C               B|-----6---5~~|
Dm      Bb C               G|----------~~|
Dm      Bb C Dm            D|-------7--~~|
                           A|-3/5------~~|
                           E|----------~~|

============================================================================

Important: The song above is NOT stored on the Chordie server. The original song is hosted at www.guitaretab.com. Chordie works as a search engine and provides on-the-fly formatting. Chordie does not index songs against artists/composers will. To remove this song please click here.

Text color:
Chord color:
Chord grids: 
Font size:    
Page size: 

A Am Bb C D Dm F F#m F#m7 G
variations - click chord images

Login - add to songbook

Transpose chords

Tuning

Rating click stars to rate

Layout
Accuracy

SHARE PAGE  




You need to log in to post comments