Guitar Tabs, Chords and Lyrics


Te Quiero  Hombres G

e-----------------------------------------|


B-----------------------------------------|


G-----------------------------------------|

D------0-0-0-----0-0-0----0-----0-----0---|
A--0-2------0--2------0-2---0-2---0-2-----|
E-----------------------------------------|
e-------------------------------------------------------------|
B-------------------------------------------------------------|
G-------------------------------------------------------------|
D------0------4--4-2---------------------------0--------------|
A--0-2----0-2------------4-4------4-2-0-------2--0-0---0-2-4--|
E--------------------2-2-----2-2--------3-3--3----------------|
e---------------------------|
B---------------------------|
G---------------------------| Aqui termina el
D--0-0-0-2-4-2------------0-| INTRO
A--------------0-0-0-0-4-2--|
E---------------------------|
[D]No,[Bm]  ya no me llo[F#m]res  [Fm-F#m]
N[G]o me vayas a [A]hacer
Ll[D]orar a m[A]í.
D[D]ame,[Bm]   dame tu m[F#m]ano   [Fm-F#m]
Int[G]éntalo, mi n[A]iña
Quiero ve[D]r...te re[A]ír.
[D]           [Bm]                                                                 
 Abrázame fuerte        D----0------|
                        A-0-2--0----|
                        E ----------|

D Bm A esta nota le pondremos "*"
 Ven corriendo a mí     D----0------|
                        A-0-2--0----|
                        E-----------|

[D] Te quiero, te quiero, te quiero
Y no h[G]a...go otra cosa
Que pe[Gm]n...sar en ti...      [D]  [Bm]   [D]  [A7]

D----0----0-----|
A-0-2--0-2--0-2-|
E---------------|



[D][Bm],   ya estás d[F#m]ormida  [Fm-F#m]
Y y[G]o te abrazo y
[A]Siento que respi[D]...r[A]as
S[D]ueño,[Bm]   con tu son[F#m]risa   [Fm-F#m]
Te b[G]eso, muy desp[A]acio en
las mej[D]i...l[A]las.
D Bm *
Necesito verte Aqui se toca la nota "*" la vez anterior
D Bm *
Donde quiera que estes
[D] Te quiero, te quiero, te quiero
Y no h[G]a...go otra cosa

Que pensar en ti.


S[A7]ólo vivo y respiro
Para t[D]i...  [Bm]
Te qui[G]e...r[A]o
Te qu[D]ier[Bm]o...   [G]  [A]
Te qui[G]e...ro
Te qui[Gm]e...ro.   [D]  [Bm]   [G]  [A7]
Aqui esta el SOLO:.....

e--------------------------------------------------------|
B-10h12--10h12--12-10------------------------------------|
G---------------------11-12-11--9-7--7--9h11-11--11-9-11-|
D-----------------------------------9--------------------|
A--------------------------------------------------------|
E--------------------------------------------------------|
e-------------------------------------------------------|
B-------------------------------------------------------|
G--9-9--9h7---------------------------------7-9-9-9-7---|
D-----------9-7-9-7-9-7-----------------7-9-------------|
A-----------------------9-10-9----0-7-9-----------------|
E------------------------------10-----------------------|
e------------------------10----17-17h19-17-17h19-17-17h19-|
B-10h11-12-12-12h11---12----12----------------------------|
G---------------------------------------------------------|
D---------------------------------------------------------|
A---------------------------------------------------------|
E---------------------------------------------------------|
e--15-15-15/14-----------10-------10-------10-12-10-12h14-14-12-|
B--------------15--10h12----10h12----10h12----------------------|
G---------------------------------------------------------------|
D---------------------------------------------------------------|
A---------------------------------------------------------------|
E---------------------------------------------------------------|



D Bm *
Abrázame fuerte
D Bm *
Ven corriendo a mi
[D] Déjame que te diga
Otra vez que te qui[G]ero
Te qui[Gm]e...ro


Te [Gm]quie...ro
te qui[D]e...ro...   Déjame q[Bm]ue te diga otra V[G]ez que te quiero, te quie[A]ro, te
quiero
te qui[D]e...ro   Déjame q[Bm]ue te diga otra V[G]ez que te quiero, te quie[A]ro, te

quiero
te qui[D]e...ro
te qui[Bm]e...ro
te qui[G]e...r[Gm]o   [D]

FINAL>>>>>>

e--------------------------------2--|
B--------------------------------3--|
G--------------------------------2--|
D----0-0-0----0-0-0----0----0----0--|
A-0-2------0-2------0-2--0-2--0-2---|
E-----------------------------------|



Espero y les guste alguna duda o comentario
escribanme
cartablanca_evitaelexeso@hotmail.com

Important: The song above is NOT stored on the Chordie server. The original song is hosted at www.guitaretab.com. Chordie works as a search engine and provides on-the-fly formatting. Chordie does not index songs against artists/composers will. To remove this song please click here.

Text color:
Chord color:
Chord grids: 
Font size:    
Page size: 

A A7 Bm D F#m G Gm
variations - click chord images

Login - add to songbook

Transpose chords

Tuning

Rating click stars to rate

Layout
Accuracy

SHARE PAGE  




You need to log in to post comments