Guitar Tabs, Chords and Lyrics


Runaway  Jefferson Starship

   [Em7]                                                     
E---1--------------------1-----3-----1----------|
B---3-----1--------------1-----3-----1----------|
G---2-----2--------------2-----3-----2----------|
D---------3-------1------------3-----3-----0----|
A-----------------2------------------------2----|
E-----------------------------------------------|



  [D7]                           [F]                           
E----------------------------5---5---3-------5---|
B--5---5---3-------5---5-----------------6-------|
G--------------5---------------------------------|
D------------------------------------------------|
A------------------------------------------------|
E------------------------------------------------|

    [C]                                 [Fmaj7]                   
E-------------0----3----1----0-------------------|
B--------1------------------------1--------------|
G---0----------------------------------2---------|
D------------------------------------------------|
A------------------------------------------------|
E------------------------------------------------|

[Fmaj7]You don't know how much I [Cmaj7]love you
[Fmaj7]But I love you like the [Cmaj7]sun
[Fmaj7]I like to put my arms a[Cmaj7]round you
Dm7 Cmaj7 + Riff
Run run run runaway
               E--------0--3--1--0---------------|
               B-----1--------------1------------|
               G--0------------------------------|


Dm7 Cmaj7 + Riff
Let's run run run runaway

Dm7 Cmaj7 + Riff
Let's run run run runaway

[Fmaj7]If you knew how much I[Cmaj7] miss you

[Fmaj7]I miss you more [Cmaj7]each day
[Fmaj7]I really like to come and[Cmaj7] see you
Dm7 Cmaj7 + Riff
Run run run runaway

Dm7 Cmaj7 + Riff
Run run run runaway

Dm7 Cmaj7 + Riff
Let's run run run runaway

Gm7 F Em7 + Riff
Sun is coming and it's getting warmer
                            E--------------------|
                            B--------------------|
                            G--2-0--2-0--2-0-2-2-|
                            D--2-0--2-0--2-0-2-2-|
                            A--------------------|
                            E--------------------|


Gm7 F Em7 + Riff
Tell me spring is just around the corner

Gm7 F Em7 + Riff
I'm sitting watching all the flowers

Gm7 F Em7 + Riff
Birds are singin' gettin' louder and louder

[Gm7]Here I am m[F]issin' you

[D7]Here I go I'm lovin' you
[F]Run run runnin' runnin' runnin'
[D7]Here I go I'm watching you
[F]Run run runnin' runnin' runnin'
[D7]Here I go I'm needin' you
[F]Run run runnin' runnin' runnin'
[D7]Here I go I'm lovin' you
[F]Run run runnin' runnin' runnin'
F Cmaj7 + Riff
Run run runnin' runnin' runaway

(Solo)

Now[Fmaj7] you don't know how much I [Cmaj7]love you

[Fmaj7]But I love you like the[Cmaj7] sun
[Fmaj7]I like to put my arms a[Cmaj7]round you
Dm7 Cmaj7 + Riff
Let's run run run runaway

Dm7 Cmaj7 + Riff
C'mon baby let's run run run runaway

You don't know how much I want to

Dm7 Cmaj7 + Riff
Run run run runaway

You don't know how much I need to

Dm7 Cmaj7 + Riff
Run run run runaway

One more time just one more time

Let's [Dm7]run run run ru[Cmaj7]naway

Important: The song above is NOT stored on the Chordie server. The original song is hosted at www.guitaretab.com. Chordie works as a search engine and provides on-the-fly formatting. Chordie does not index songs against artists/composers will. To remove this song please click here.

Text color:
Chord color:
Chord grids: 
Font size:    
Page size: 

C Cmaj7 D7 Dm7 Em7 F Fmaj7 Gm7
variations - click chord images

Login - add to songbook

Transpose chords

Tuning

Rating click stars to rate

Layout
Accuracy

SHARE PAGE  




You need to log in to post comments