Guitar Tabs, Chords and Lyrics


THE STRANGER  Billy Joel

------------------0---2---3----6/7---7--7----8---5--3--5------|---------2---3---5--------


--------------0-----------------------------------------------|------0-------------------


--------------------------------------------------------------|--------------------------


--------------------------------------------------------------|--------------------------


--------------------------------------------------------------|--------------------------


--------------------------------------------------------------|--------------------------


-----8---7---5---2/3---2---0------|---0---12----7---8---10----8-7-8-7-8-----7---3---5--7-


----------------------------------|------------------------------------------------------


----------------------------------|------------------------------------------------------


----------------------------------|------------------------------------------------------


----------------------------------|------------------------------------------------------


----------------------------------|------------------------------------------------------


---5-3-5---3---0---2---3-----|


-----------------------------|


-----------------------------|


-----------------------------|


-----------------------------|


-----------------------------|


----2--0--2---------------------------|


--------------------------------------|


--------------------------------------|


--------------------------1---4-------|  Repeat from beginning


----------------2-----0------------0--|


--------------------------------------|


----2--0--2------0--------0------2---5---8---8--7--5--5--3--2---0---|


--------------------2--4-----4--------------------------------------|


--------------------------------------------------------------------|


--------------------------------------------------------------------|


--------------------------------------------------------------------|


--------------------------------------------------------------------|


--------------------------------------|----------------------------------|


--------------------------------------|----------------------------------|


--------------------0-----------------|-------------3---2--0----0--------|Play 2x


----------2--0--2-------2--0--2-------|---2--0--2------------------0-----|


--------------------------------------|----------------------------------|


--------------------------------------|----------------------------------|

Well we [Em]all have a face
That we [Am]hide away f[Em]orever
And we [Am]take them out, and [C7]show ourselves
When [D]everyone has gone[B7]
Some are [Em]satin, some are steel
Some are [Am]silk and some are [Em]leather
They're the [Am]faces of a [D]stranger [Em7]but we [Em]love
[Bm7]To try them[Em] on
REPEAT INTRO
||:
Well we [Em]all fall in love
But we [Am]disregard the [Em]danger
Though we [Am]share so many [C7]secrets, there are
[D]Some we never tell[B7]
Why were [Em]you so surprised
That you [Am]never saw the s[Em]tranger
Did you [Am]ever let your l[D]over see the s[Em]tranger
[Bm]in yo[Em]urself
[Bm]Don't be a[Bb+]fraid to try aga[Bm7]in
[D]Everyone goes s[Bm]outh
[Bb]Every now and [Bm7]then[D]
[Bm]You've done it, [Bb+]why can't someone [Bm7]else
[D]You should know by [Bm]now,
[Bb+]You've been there yours[D]elf[Bm]
1st time:  Once I   [Em]used  to believe
2nd time: You will never understand
I   was [Am]such a great rom[Em]ancer
How the stranger is inspired
Then I c[Am]ame home to a [C7]woman
But he isn't always evil
That I [D]could not recognize[B7]
And he is not always wrong
When I p[Em]ressed her for a reason
Though you drown in good intentions
She r[Am]efused to give an [Em]answer
You will never quench the fire
It was [Am]then I felt the [D]stranger [Em7]kick me
You'll give into your desire when the
[Em]Right bet[Bm7]ween the [Em]eyes
Stranger comes along
REPEAT INTRO
:||
REPEAT INTRO AND FADE OUT
Repeat Piano Whistle solo

Important: The song above is NOT stored on the Chordie server. The original song is hosted at www.guitaretab.com. Chordie works as a search engine and provides on-the-fly formatting. Chordie does not index songs against artists/composers will. To remove this song please click here.

Text color:
Chord color:
Chord grids: 
Font size:    
Page size: 

Am B7 Bb Bb+ Bm Bm7 C7 D Em Em7
variations - click chord images

Login - add to songbook

Transpose chords

Tuning

Rating click stars to rate

Layout
Accuracy

SHARE PAGE  




You need to log in to post comments