Guitar Tabs, Chords and Lyrics


Your Mama Dont Dance  Loggins & Messina

---------------------------------------------------------|


---------------------------------------------------------|


--2------------2------------2------------2------------2--|

--2------2-4-2-2------2-4-2-2------2-4-2-2------2-4-2-2--|
--0--3h4-------0--3h4-------0--3h4-------0--3h4-------0--|
---------------------------------------------------------|
--5----5--7--5----5--7--5----5--7--5----5--7--5----5--7--|
--5----5--7--5----5--7--5----5--7--5----5--7--5----5--7--|
--5h6--5--7--5h6--5--7--5h6--5--7--5h6--5--7--5h6--5--7--|
---------------------------------------------------------|
---------------------------------------------------------|
---------------------------------------------------------|
[A]Your mama don't dance, your [D]daddy don't rock and r[A]oll.
( play intro )

Your [D]mama don't dance, your daddy don't rock and [A]roll.
( play intro )

When [E]evenin' comes around and it's [D]time to go to town

where do you [A]go, to rock and roll.
1st VERSE:

T[A]he old folks say, you [D]gotta end your date by t[A]en.
( play intro )

If you're [D]out on a date and you bring her home late it's a s[A]in.
( play intro )

[E]It Just goes to prove that, you [D]know you're gonna lose

and never [A]win, I'll say it again. And its all because-
( CHORUS )

Then go to bridge with a walk up :

-------------------1/2--|

-------------------2/3--|
-------------------1/2--|
-------------------0----|
--0--1--2--3--4---------|
------------------------|


BRIDGE:
[D]You pull into a drive-in, you find a place to park.


[D]You hop into the backseat, where you know it's nice and dark.
[D]You're just about to groove and you're thinkin' it's a breeze,
[D]When there's a light in your eye and another guy says:
OUTTA THE CAR LONG - HAIR!!!!


[E]Louise, you're coming with [D]me, the local p[A]olice.
( CHORUS )


Any questions, comments, or complaints, feel free to
E-mail me or post a thread at this sight.

Important: The song above is NOT stored on the Chordie server. The original song is hosted at www.guitaretab.com. Chordie works as a search engine and provides on-the-fly formatting. Chordie does not index songs against artists/composers will. To remove this song please click here.

Text color:
Chord color:
Chord grids: 
Font size:    
Page size: 

A D E
variations - click chord images

Login - add to songbook

Transpose chords

Tuning

Rating click stars to rate

Layout
Accuracy

SHARE PAGE  




You need to log in to post comments

minstrelbear (report)

original song is in C