Guitar Tabs, Chords and Lyrics


  -----------------------------------------------------------------



Para bailar la [C]bamba[F],  [G7]    Para bailar la [C]bamba,
  se [F]nece[G7]sita un poca de [C]gracia[F],  [G7]   una poca de [C]gracia [F]para mi para
[G7]tiy ariba y ari[C]ba,[F]   [G7]  ay ariba [C]ariba por [F]ti se [G7]re
por ti se [C]re, por [F]ti se [G7]re
- VERSE 2 - (guitar 2 strums the chords C F and G7)
yo no soy [C]marinero[F],  [G7]  yo no soy mari[C]nero
soy [F]capi[G7]tan, soy capi[C]tan, soy [F]capi[G7]tan
- CHORUS - (guitar 1 plays riff B)
(guitar 2 strums the chords)
[C]bam[F]ba, [G7]bamba
[C]bam[F]ba, [G7]bamba
[C]bam[F]ba, [G7]bamba
   [C]  [F]  [G7]   [bamba]      - VERSE 3 - (guitar 2 strums the chords)
Para bailar la [C]bamba,[F]   [G7]   Para bailar la [C]bamba,
  se [F]nece[G7]sita un poca de [C]gracia[F],  [G7]  una poca de [C]gracia [F]para mi para
[G7]tiy ariba y ar[C]iba [F] [G7]
- GUITAR SOLO -
NOTES: (p) pull off
(h) hammer on
/ slide up
slide down
(tr) tremolo picking
guitar 2 continues strumming C F G7 repetitively throughout the solo.
(tremolo on the open g-string)
(play this for 2 bars)
E |----------------------------|-----------------------------|
B |----------------------------|-------0--0(h)2--0------0----|
G |-------(tr)-0---------------|-0--2----------------2-----2-|
D |----------------------------|-----------------------------|
A |----------------------------|-----------------------------|
E |----------------------------|-----------------------------|
E |----------------------------|-----------------------------|
B |----------------------------|-----------------------------|
G |--0--2--0-----0--------0----|-----------------------------|
D |-----------3-----2--3-------|-2--3--0--2-----0------------|
A |----------------------------|-------------3-----2--3--0---|
E |----------------------------|-----------------------------|
E |----------------------------|-----------------------0--1--|
B |----------------------------|--------------0--1--3--------|
G |----------------------------|--------0--2-----------------|
D |-------------------------0--|--2--3-----------------------|
A |-2-----0--------0--2--3-----|-----------------------------|
E |----3-----1--3--------------|-----------------------------|

(tremolo for 1 bar)
E |-----0--1-----0--1----------|----------(tr)-3-------------|
B |--3--------3----------------|-----------------------------|
G |----------------------------|-----------------------------|
D |----------------------------|-----------------------------|
A |----------------------------|-----------------------------|
E |----------------------------|-----------------------------|

(as soon as you come out of the
tremolo from previous bar, slide
up to the 12 fret then back
without picking)
E |--------3/123--------------|-5--3(h)5(p)3--1(h)3(p)1(p)0-|
B |----------------------------|-----------------------------|
G |----------------------------|-----------------------------|
D |----------------------------|-----------------------------|
A |----------------------------|-----------------------------|
E |----------------------------|-----------------------------|
E |-1-----0--------0-----------|-----------------------------|
B |----3-----1--3-----1--3-----|--0(h)1(p)0-----0------------|
G |----------------------------|-------------2-----2---------|
D |----------------------------|-----------------------------|
A |----------------------------|-----------------------------|
E |----------------------------|-----------------------------|
E |----------------------------|-----------------------------|
B |----------------------------|-----------------------------|
G |--0(h)2(p)0-----0--------0--|-----------------------------|
D |-------------3-----2--3-----|---2--3----------------------|
A |----------------------------|---------2(h)3(p)2(p)0-------|
E |----------------------------|------------------------3----|

(tremolo for 1 bar) (tremolo for 1 bar)
E |----------------------------|--0--1--(tr)-3---------------|
B |----------------------------|-----------------------------|
G |-------------(tr)-0---------|-----------------------------|
D |---0--2--3------------------|-----------------------------|
A |----------------------------|-----------------------------|
E |----------------------------|-----------------------------|
E |----------------------------|------------------------------|
B |----------------------------|-----------1--0---------------|
G |----------------------------|--0--0--2--2--0-------0--2--2-|
D |----------------------------|--2--0--3----------0--0--3--3-|
A |------0--2--7--------------|----------------2--2----------|
E |---3--------8--------------|----------------3-------------|
E |----------------------------||
B |---------------------1--0---||
G |---0--0-----0--0--2--2--0---||
D |---2--0--2--2--0--3---------||
A |---------3------------------||
E |----------------------------||

* END SOLO*
- VERSE 4 - (exactly the same as verse 1)
Para bailar la [C]bamba,[F]   [G7]   Para bailar la [C]bamba,
  se [F]nece[G7]sita un poca de [C]gracia[F],  [G7]   una poca de [C]gracia [F]para mi para
[G7]tiy ariba y a[C]riba,[F]   [G7]  ay ariba ar[C]iba por [F]ti se [G7]re
por ti se [C]re, por [F]ti se [G7]re
- ENDING CHORUS - (guitar 1 plays riff C repetitively)
(guitar 2 strums chords)
[C]bam[F]ba[G7],  bamba
[C]bam[F]ba[G7], bamba
[C]bam[F]ba[G7], bamba
[C]bam[F]ba[G7], bamba
* END OF SONG* (classical piece kicks in here)
************ RIFFS *************
- RIFF A - (introduction)
E |----------------------------|----------------------------|
B |----------------------1--0--|----------------------------|
G |-------------0--0--2--2--0--|-------0---2--2--0---0------|
D |-------------2--0--3--------|----0--0---3--3--2---0------|
A |----0--2--3-----------------|-2--2-----------------------|
E |-3--------------------------|-3--------------------------|
E |----------------------------||
B |-------------------1---0----||
G |-------0--0--2--2--2---0----||
D |---2---2--0--3--3-----------||
A |---3------------------------||
E |----------------------------||

- RIFF B - (chorus)
      [bam]    [-]  [ba]       [bamba]                                                                        
E |----------------------------|----------------------------|
B |----------------0-----------|----------------------------|
G |---------2------0-----------|----------------------------|
D |---2-----3------------------|------0---3--3--2----0------|
A |---3------------------------|---2------------------------|
E |----------------------------|3---------------------------|

      [bam]    [-]  [ba]       [bamba]                                                                        
E |----------------------------|----------------------------|
B |----------------0-----------|----------------------------|
G |---------2------0-----------|----------------------------|
D |---2-----3------------------|------0---3--3--2----0------|
A |---3------------------------|---2------------------------|
E |----------------------------|3---------------------------|

      [bam]    [-]  [ba]       [bamba]                 [bam] [-]                                                                  
E |----------------------------|----------------------------|
B |----------------0-----------|----------------------------|
G |---------2------0-----------|----------------------------|
D |---2-----3------------------|------0---3--3--2----0------|
A |---3------------------------|---2------------------------|
E |----------------------------|3---------------------------|

      [ba]                                                                     
E |----------------------------||
B |----------------------------||
G |----------------2---0-------||
D |------2--0--3---------------||
A |---3------------------------||
E |----------------------------||

- RIFF C - (used in ending chorus, play repetitively)
      [bam]    [-]  [ba]       [bamba]                                                                        
E |----------------------------|----------------------------||
B |----------------0-----------|----------------------------||
G |---------2------0-----------|----------------------------||
D |---2-----3------------------|------0---3--3--2--0--------||
A |---3------------------------|---2------------------------||
E |----------------------------|3---------------------------||				


Important: The song above is NOT stored on the Chordie server. The original song is hosted at www.guitaretab.com. Chordie works as a search engine and provides on-the-fly formatting. Chordie does not index songs against artists/composers will. To remove this song please click here.

Text color:
Chord color:
Chord grids: 
Font size:    
Page size: 

C F G7
variations - click chord images

Login - add to songbook

Transpose chords

Tuning

Rating click stars to rate

Layout
Accuracy

Jango Player

SHARE PAGE  




You need to log in to post comments