Guitar Tabs, Chords and Lyrics


Dream Catch Me Acoustic  Newton Faulkner

      [Bm]A   [2]0 [2]0 [4]2 [4]2 [3]2 [2]0
DCadd 0 0 4 2 3 0
GCadd 0 0 5 2 3 0

Into:

Funky Dm G
e|----------------------------------3-----------------------------------|
A|---3--3--3--3--3----3--3--3--3-------3--------------------------------|
D|--2--2--2--2--2----0--0--0--0-------0--------------REPEAT TWICE-------|
G|----------------------------------------------------------------------|
B|----------------------------------------------------------------------|
E|-2--2--2--2--2----3--3--3--3---3--------------------------------------|


"every time"
e|-----------------------------------|
A|---3--3--3--3--3----3--3--3--3--3--|
D|--2--2--2--2--2----0--0--0--0--0---|
G|-----------------------------------|
B|-----------------------------------|
E|-2--2--2--2--2----3--3--3--3--3----|


"i close my eyes"
e|-----------------------------------|
A|---3--3--3--3--3----3--3--3--3--3--|
D|--2--2--2--2--2----0--0--0--0--0---|
G|-----------------------------------|
B|-----------------------------------|
E|-2--2--2--2--2----3--3--3--3--3----|


"its you.... and i know now..............who i am"................
eCadd9 G D
e|----------------------------------------------------------2--0--------|
A|----5---5---5---5---5--------3---3---3---3---3------3--3---3--3--3----|
D|---0---0---0---0---0--------0---0---0---0---0------2--2-----2--2--0---|
G|--------------------------------------------------0--0--0-------------|
B|----------------------------------------------------------------------|
E|-0---0---0---0---0--------3---3---3---3---3---------------------------|


"yer yer yerrrr.............and i know nowwwww.......
Bm eCadd9 A
e|-----------2---0------------------------------------------------------|
A|----3--3----3---3--3-0-------5--5--5--5--5-------2--2--2--2--2--------|
D|---4--4------4---4----------0--0--0--0--0-------2--2--2--2--2---------|
G|----------------------------------------------------------------------|
B|--2--2--2--------------------------------------0--2--2--2--2----------|
E|--------------------------0---0--0--0--0------------------------------|


the chorus is just random finger picking, just listen to a live version on youtube to
up the general jist of the rythm.

  [D] There's a place I go   When I'm alon[A]e
   Do anything I want   be anyone I w[Bm]anna be
   But it is us I see   and [G]I cannot believe I'm falling

[D]   That's where I'm going   where are you go[A]ing
   Hold it close won't let this g[Bm]o
   Dream catch me, ye[G]a
   Dream catch me when I fa[Em]ll   [G]
Or else I won't come back at all

Verse 2 (strum both cadd's):
Dcadd Gcadd
"you do so much

Dcadd Gcadd
that you dont know.....its true"

"and i know now.............who i ammm
eCadd9 G Bm
e|--------------------------------------------------2--0----------------|
A|----5--5--5--5--5------3--3--3--3--3-------3--3----3--3--3-0----------|
D|---0--0--0--0--0------0--0--0--0--0-------4--4------4--4--------------|
G|----------------------------------------------------------------------|
B|-----------------------------------------2--2--2----------------------|
E|--0--0--0--0--0------3--3--3--3--3------------------------------------|


yer yer yerrrr...........and i know now
    [D]                      [A]                                                                 
e|-----------2--0-------------------------------------------------------|
A|----3--3----3--3--3---------2--2--------------------------------------|
D|---2--2------2--2--0-------2--2---START Strumming---------------------|
G|--0--0--0-------------------------------------------------------------|
B|--------------------------0--0----------------------------------------|
E|----------------------------------------------------------------------|


Chorus strum this chorus:

[D]   There's a place I go   When I'm al[A]one
   Do anything I want   be anyone I w[Bm]anna be
   But it is us I see   and [G]I cannot believe I'm falling

[D]   That's where I'm going   where are you go[A]ing
   Hold it close won't let this g[Bm]o
   Dream catch me, ye[G]a
   Dream catch me when I fa[Em]ll   [G]
Or else I won't come back at all

[Bm]   See you as a mount[G]ain   a fountain of G[D]od
   See you as as a de[A]scant soul   in the se[Bm]tting sun
   You as the so[G]und   just as silent as no[D]ne
[A]  I'm yours

chorus(pluck the first half of the chorus then strum the rest):

[D]   There's a place I go   when I'm al[A]one
   Do anything I want   be anyone I wa[Bm]nna be
   But it is us I see   and I[G] cannot believe I'm falling

[D]   There's a place I go   when I'm al[A]one         (for the rest of this
Bm chorus Newton does some
Do anything I want be anyone I wanna be hand slapping it makes the
G song sound awesome)
But it is us I see and I cannot believe I'm falling

[D]   That's where I'm going   where are you go[A]ing
   Hold it close won't let this g[Bm]o
   Dream catch me, y[G]ea
   Dream catch me when I f[Em]all  [G]
   Or else I won't come back at al[D]l

right this is now done, and this is also my first tab so hope its perfect, listen to the
acoustic version of dream catch me on youtube to get everything perfect......
john xxx

Important: The song above is NOT stored on the Chordie server. The original song is hosted at www.guitaretab.com. Chordie works as a search engine and provides on-the-fly formatting. Chordie does not index songs against artists/composers will. To remove this song please click here.

Text color:
Chord color:
Chord grids: 
Font size:    
Page size: 

A Bm D Em G
variations - click chord images

Login - add to songbook

Transpose chords

Tuning

Rating click stars to rate

Layout
Accuracy

SHARE PAGE  




You need to log in to post comments