Guitar Tabs, Chords and Lyrics


Still Crazy  Paolo Nutini

e|----------------2----------------0-------------------3---------3-------------------|


B|------------3-----------------3------------------ 3----------3---------------------|


G|--------2------------------3-------------------0----------0------------------------|

D|---0-------------------------------------------------------------------------------|
A|--------------------0--------------------------------------------------------------|
E|------------------------------------------3--------------3-------------------------|
e|----------------2----------------0-------------------3---------3-------------------|
B|------------3-----------------3p0-----------------3----------3---------------------|
G|--------2------------------3-------------------0----------0------------------------|
D|---0-------------------------------------------------------------------------------|
A|--------------------0--------------------------------------------------------------|
E|------------------------------------------3--------------3-------------------------|
[EM]But I need you ears an[A]d I need them now I’v[D]e got som[A]ething to s[G]ay,
[EM]I’m not here today to win you b[A]ack just to remind you that
Chorus

[D]sure as the rai[A]n starts to f[G]all,
[D]I’ll always rem[A]ember you dea[G]r
[D]and although w[A]e don’t talk any[G]more.
[EM]I was crazy for you; yes I was[A] crazy for you, that’s for sure.[D]

Verse 2
Same as first verse
Nothings ever easy, I think we both know that it’s true.
I was convinced you loved me, and I was pretty sure that I loved you too, when was our
moment whats your favourite might have beens
When was my fatal error that changed the way you thought of me ever since.

Bridge 2

[EM]I made you smile and I made you l[A]augh,
I made nice gestures and surprised you enough
But I made you come and I made you cry
I wish this was true but I’m not gonna lie.

Chorus 2 Same as chorus 1

So sure as the rain starts to fall
I’ll always remember you dear
And although we don’t touch anymore.
I was crazy for you; I’m still crazy for you, that’s for sure.
Still crazy for you, still crazy for you, still crazy for you.

Tabbed by Paul Atherton, athertpa@aol.com... Please contact me with any suggestions!!!
people

Important: The song above is NOT stored on the Chordie server. The original song is hosted at www.guitaretab.com. Chordie works as a search engine and provides on-the-fly formatting. Chordie does not index songs against artists/composers will. To remove this song please click here.

Text color:
Chord color:
Chord grids: 
Font size:    
Page size: 

A D Em G
variations - click chord images

Login - add to songbook

Transpose chords

Tuning

Rating click stars to rate

Layout
Accuracy

SHARE PAGE  




You need to log in to post comments