Guitar Tabs, Chords and Lyrics


YOU DONT KNOW HOW IT FEELS  Tom Petty

    So let's  [E]get  to the [B]point   let's [E]roll another [A]joint
    Turn the  [E]radio       [B]loud  I'm too [E]alone to be  [A]proud
    [E]You don't [D]know how it [A]feels
    [E]You don't [D]know how it [A]feels...to be [E]me[A]
E A E A (x2)
People come people go some grow young some grow cold
I woke up in between a memory and a dream
Chorus (2):
    So let's  [E]get       to the [B]point let's [E]roll  another [A]joint
       let's  [E]head on down the [B]road to some[E]where I gotta [A]go
    [E]You don't [D]know how it [A]feels
    [E]You don't [D]know how it [A]feels
No [E]you don't [D]know how it [A]feels...to be [E]me[A]
E A E A (x2)
My old man was born to rock but he's still tryin' to beat the clock
Think of me what you will I've still got a little space to fill
Chorus (2) x 2
............................................................................
Thanks RodN for getting the ball rolling...
->TC
Newsgroups: alt.guitar.tab
You Don’t Know How It Feels
by Tom Petty
E--A--E--A

[E]Let me run with [A]you tonight, I’ll [E]take you on a [A]moonlight ride
E--A--E--A

[E]There’s someone I [A]used to see, but [E]she don’t give a [A]damn for me
E--A--E--A

CHORUS:
But let me [E]get to the [D]point, let’s [E]roll another [A]joint
And turn the [E]radio [D]loud, I’m too a[E]lone to be [A]proud
[E]You don’t [D]know how it [A]feels
[E]You don’t [D]know how it [A]feels... to be [E]me
[E-D-A]         [E-D-A]      BRIDGE:
E---------------------------------------------------------------------------------------
B---------------------------------------------------------------------------------------
G---------------------------------------------------------------------------------------
D------------------------0---------------------------------0--------------------------
A--------------------2--------3-----------------------2--------3----0---------------
E-----0---2---4---------------------0----2---4-------------------------------------

You Dont Know How It Feels
By Tom Petty
This is the way that I play the bridge part to this song.
I think that it sounds better this way.
Bridge
|--------------------|----------------------|---------------
|--------------------|----------------------|---------------
|--------------------|----------------------|---------------
|--------------------|----------------------|---------------
|---2-------2--5--4--|--2-------2--5--4--0--|---------------
|---0--24-----------|--0--24--------------|---------------

Questions or comments, write me at
Coolez@aol.com

Important: The song above is NOT stored on the Chordie server. The original song is hosted at www.guitaretab.com. Chordie works as a search engine and provides on-the-fly formatting. Chordie does not index songs against artists/composers will. To remove this song please click here.

Text color:
Chord color:
Chord grids: 
Font size:    
Page size: 

A B D E
variations - click chord images

Login - add to songbook

Transpose chords

Tuning

Rating click stars to rate

Layout
Accuracy

SHARE PAGE  




You need to log in to post comments