Guitar Tabs, Chords and Lyrics


Suspicious Minds  Elvis Presley

[G]  We're caught in a ...  [C]
[D]  because I love[C] you ...        [G]
[G]  Why can't you see, [C]  ...
[D7] when you don't ...

(1st Chorus:)
  [C]   We can't go on[G] together[Bm], with ...          [C]     [D]
   [D7]  and we can't build our dreams, ....

2.
[G]  So, if an old friend I know, [C]...
[D]  would I still se[C]e ....      [G]
[G]  Here we go again,[C] asking ...
[D7] You can see these tears ...

(2nd Chorus:)
  [C]   We can't go on[G] together[Bm], ....;             [C]
  [B7]   and we can't build our dreams, ...

       [Em]   Oh, let our [Bm]..            [C]
          I'll dry the [D]...
       [Em]   Let's don't let a [Bm]good ...       [C]
     [D7]     you know I've never,  lied to ....

(repeat first verse and fade)
--------------------------------------------------------------

Chord diagrams:
Bm - |224432| or |xx4432| D7 - |xxo212| B7 - |x212o2|
Em - |o22ooo| B7sus4 - |x2425x|

--------------------------------------------------------------


Have fun and long live the King...
     T  /[///]//   B
         [//]                            

Fingering position:

Position I
|---|---|---|---|---|
|---|---|---|---|---|
|---|---|---|---|---|
|---|---|---|---|--3|
|---|---|---|---|--2|
|---|---|--1|---|---|


Tab
    -----------------|
    -----------------|
    -----------------|
    ---------------5-|
    -------------5---|
    -----------3-----|



intermediate position
|---|---|---|---|---|
|---|---|---|---|---|
|---|---|---|---|---|
|---|---|---|---|--3|
|---|---|---|---|--2|
|---|---|---|---|---|


Quickly change your fingers
in silence


Position II
|---|---|---|---|---|
|---|---|---|---|---|
|---|---|---|--1|--4|
|---|---|---|---|--3|
|---|---|---|---|--2|
|---|---|---|---|---|


Tab
       --------------|
       --------------|
       ------5-4-5-4-|
       ----5---------|
       --5-----------|
       --------------|


Repeat pressing and
lifting your little finger (4)


Position III
|---|---|---|---|---|
|---|---|---|---|--4|
|---|---|---|---|--3|
|---|---|---|---|--2|
|---|---|--1|---|---|
|---|---|---|---|---|


...

Important: The song above is NOT stored on the Chordie server. The original song is hosted at www.guitaretab.com. Chordie works as a search engine and provides on-the-fly formatting. Chordie does not index songs against artists/composers will. To remove this song please click here.

Text color:
Chord color:
Chord grids: 
Font size:    
Page size: 

B7 Bm C D D7 Em G
variations - click chord images

Login - add to songbook

Transpose chords

Tuning

Rating click stars to rate

Layout
Accuracy

SHARE PAGE  




You need to log in to post comments

neil mcaughey (report)

why not all the words