Guitar Tabs, Chords and Lyrics


Son Of A Poor Man  Reo Speedwagon

[1973]Written by Gary Richrath
Tabbed by Ray Scheidler

Chords:

  [Bb]    [Eb]                                                  
E---------1-----------3-----3----------1----3----|
B---1-----1-----1-----------3-----1----3----4----|
G---------2-----2----------------------3----3----|
D---2-----3-----2-----------------2----3----1----|
A---3-----3-----------2-----2----------1---------|
E---------------------3-----------3--------------|


Intro:(Play twice)

   [C]                                                     
E------------------------------------------------|
B--13--(13)--13--11------------------------------|
G--------------------10--------------------------|
D------------------------13--10---10--13--10-----|
A------------------------------------------------|
E------------------------------------------------|


H[C]ometown l[F]ady  l[C]eavin' for the c[F]ity
B[C]ags in hand she's b[Am]oarding the tr[G]ain
H[C]er last look through the w[F]indow
[C]I saw her eyes were as r[F]ed as mine
[C]I wave goodbye but I c[Am]an't believe she's le[G]aving
But a w[F]oman can't be h[G]igh class
In a l[C]onely f[G/B]armer's t[Am]own [C/G]
[F]And the son of a p[G]oor man
Ain't gonna t[C]urn your h[G/B]ead ar[Am]ound [C/G]
B[F]ut if you ever get l[G]onely
Just p[C]ick up the [G/B]telep[Am]hone[C/G]
[F]And the son of a p[G]oor man
[Eb]Will[C] br[F]ing[Bb] you home
Well m[C]aybe soon I'll s[F]ee her on some t[C]elevision sh[F]ow
P[C]ainted lips and f[Am]ingers singing for the w[G]orld
[C]A fashion plate for s[F]ure d[C]ancing for your pl[F]astic world
C[C]all me up if you c[Am]an but if not well I'll [G]understand
Cause a w[F]oman can't be h[G]igh class
In a l[C]onely f[G/B]armer's t[Am]own [C/G]
A[F]nd the son of a p[G]oor man
Ain't gonna t[C]urn your h[G/B]ead ar[Am]ound [C/G]
B[F]ut if you ever get l[G]onely
You just p[C]ick up the [G/B]telep[Am]hone [C/G]
[F]And the son of a p[G]oor man's gonna bring you h[Bb]ome [C]

Important: The song above is NOT stored on the Chordie server. The original song is hosted at www.guitaretab.com. Chordie works as a search engine and provides on-the-fly formatting. Chordie does not index songs against artists/composers will. To remove this song please click here.

Text color:
Chord color:
Chord grids: 
Font size:    
Page size: 

Am Bb C C/G Eb F G G/B
variations - click chord images

Login - add to songbook

Transpose chords

Tuning

Rating click stars to rate

Layout
Accuracy

SHARE PAGE  




You need to log in to post comments