Guitar Tabs, Chords and Lyrics


  

f 1:
E|-7-7-7-10-x-7-7-7-10-7-x-x-5-5-5-7-x-5-5-5-7-5--5-5-5-5-5-5-x-5-5-5-5-5-x-x-
B|-8-8-8-8--x-8-8-8-8--8-x-x-5-5-5-5-x-5-5-5-5-5--5-5-5-5-5-5-x-5-5-5-5-5-x-x-
G|-7-7-7-7--x-7-7-7-7--7-x-x-5-5-5-5-x-5-5-5-5-5--5-5-5-5-5-5-x-5-5-5-5-5-x-x-
D|----------------------------------------------------------------------------
A|----------------------------------------------------------------------------
E|----------------------------------------------------------------------------

E|-3-3-3-5---3-3-3-5-3-
B|-3-3-3-3-x-3-3-3-3-3-
G|-4-4-4-4-x-4-4-4-4-4-
D|---------------------
A|---------------------
E|---------------------

Intro: Riff 1 x2

Verse 1 (with Riff 1)

Well I'm on my way to the city life
To a pretty face that shines her light on the city night
And I gotta catch a noon train, I gotta be there on time
Oh it feels so good to know she waits at the end of the line

Riff 2:
E|-10----10-7-10-7-8/10-
B|----------------------
G|----------------------
D|----------------------
A|----------------------
E|----------------------

Riff 3:
E|-----------
B|-8-8-8-5-3-
G|-7-7-7-5-4-
D|-9-9-9-7-5-
A|-----------
E|-----------

Sweet, sweet city woman (riff 2)
I can see your face I can hear your voice I can almost touch you (riff 3)
Sweet, sweet city woman (riff 2)
On my banjo knee we got a feel for singing, yeah yeah

Riff 4:
E|------------------------------------------
B|------------------------------------------
G|---------------------------------4--7b--5-
D|-5--x-5--x-5-5--5------5-x-x-5-7----------
A|------------------7-5---------------------
E|------------------------------------------

Riff 5:
E|-7-(7)h10---5-------7-(7)h10---3-------7-------7-7-7-7-7-7-
B|-8----------5-------8----------3-------8-------8-8-8-8-8-8-
G|-7----------5-------7----------4-------7-------7-7-7-7-7-7-
D|-----------------------------------------------------------
A|-----------------------------------------------------------
E|-----------------------------------------------------------

(with riff 4) (I'm not sure about the words here....it could be "c'est bon")
Bon, say bon, bon bon say bon bon
Bon, say bon, bon bon say bon bon
So long boy, so long boy, so long
(with riff 5)
Neighbours and friends

(with riff 1)
Like a country morning, all smothered in dew
I just got away to make a man feel shiny and new
And she'll sing in the evening, some familiar tunes
And she feeds me love and tenderness and maccaroons

Chorus: slide up E and B strings at the end

Solo:
E|-10----10-7-10-7-10----10-7---7-7-7-8--7------8-7-8-7-10--8-7-8-7-10--8-7-8-7-
B|-----------------------------------------8------------------------------------
G|-------------------------------------------7----------------------------------
D|------------------------------------------------------------------------------
A|------------------------------------------------------------------------------
E|------------------------------------------------------------------------------
                      *
E|-7-7--7-7-7-8--7------------------7-8-
B|-----------------8---------7-8-10-----
G|-------------------7---7-9------------   repeat until *, back to chorus
D|--------------------------------------
A|--------------------------------------
E|--------------------------------------

Sweet, sweet city woman (riff 2)
Whoa she's my sweet sweet sweet sweet city woman (riff 3)
Sweet, sweet city woman (riff 2)
Whoa my sweet sweet sweet sweet city woman (riff 3)

Riff 6:
E|-7-7-7-7--7-7-7-7-
B|-8-8-8-8--8-8-8-8-
G|------------------
D|------------------
A|------------------
E|------------------

Everybody, sweet sweet sweet sweet city woman (riff 6)
Sweet sweet sweet sweet city woman (riff 6)
Sweet sweet sweet sweet city woman (riff 6)
Sweet sweet sweet sweet city woman (riff

Important: The song above is NOT stored on the Chordie server. The original song is hosted at www.guitaretab.com. Chordie works as a search engine and provides on-the-fly formatting. Chordie does not index songs against artists'/composers' will. To remove this song please click here.

This song is displayed as text-only. Transposing and tuning is only available for chordpro-songs.

Login - add to songbook

Rating click stars to rate

Layout
Accuracy

Jango Player

SHARE PAGE  




You need to log in to post comments