Guitar Tabs, Chords and Lyrics


MY SHARONA  Knack

E +-------------------x---x----------------+


B |-------------------5---3----------------|


G |-------------------5---3----------------|


D |--55-5-5--5---55-5-5---3----------------|


A |-------------------3---x----------------|


E +33--3-3-33--33--3--x---x----------------+

when you gonna give me some t[C]ime [Bb]Sha[C]ro[Bb]na
Will you make my motor run, motor run,
honey coming off of the line Sharona
[G]Never gonna stop give it up such a dirty mind
[Bb]Always get it up fro[C]m the touch of[Eb] the younger kind
My My My Sharona (4x)
Come a little closer huh be a hon
Close enough to look in my eyes Sharona
Keep a little mystery get to me
Running down the length of my thigh Sharona
Never gonna stop give it up such a dirty mind
Always get it up from the touch of the younger kind
My My My Sharona (2x)
[small lead] C Eb ---  Eb F  Eb F (D) (4x)

(riff)
When you gonna give to me give to me
Is it just a mater of time Sharona
Here's a trip to destiny to destiny
Or is it just a game in my mind Sharona
Never gonna stop give it up such a dirty mind
Always get it up from the touch of the younger kind
My My My Sharona (2x)
(progression for solo)
[C]    [GG]    [FF]     [FF]   [G]  (repeat till end of solo, end on D, return to riff)
Title: My Sharona (solo)
E +--------|-----------------------|---------|-------------+
B |--------|-----------------------|---------|------8------|
G |0-2/5-44|57--b7-7h9p7-54-5/7-9-|---------|--7-b7--7----|
D |--------|----------------------5|5-5h7p5-5|75-----------|
A |--------|-----------------------|-------8-|-------------|
E +--------|-----------------------|---------|-------------+
E +------------------|----------|------8-------8------8----+
B |------------------|----------|---888-----888----888-----|
G |75-75--b7-7p5-75--|---5h7p5-5|-b7------b7-----b7--------|
D |------8------7--77|5h7-----7-|--------------------------|
A |------------------|----------|--------------------------|
E +------------------|----------|--------------------------+
E +--------------|------------------8-10p8-------8-10p8----+
B |--------------|----8-10p8--8-8h10------10-8h10------10--|
G |77-b7--7p5-57-|-7/9------9------------------------------|
D |--------------|-----------------------------------------|
A |--------------|-----------------------------------------|
E +--------------|-----------------------------------------+
E +8-12p8--8-10p8--8-12p8--8-10p8--8-12p8-12p8--8-10p8-10p8+
B |------10------10------10------10-----------10-----------|
G |--------------------------------------------------------|
D |--------------------------------------------------------|
A |--------------------------------------------------------|
E +--------------------------------------------------------+
E +--8-12p8--8-13p8--8-12p8--8-10p8--8-12p8--8-------------+
B |10------10------10------10------10------10--------------|
G |--------------------------------------------------------|
D |--------------------------------------------------------|
A |--------------------------------------------------------|
E +--------------------------------------------------------+
    -----repeat 3x-----------
E +|12p8-12p8-10p8-10p8-10p8--|-13p8-12p8-10p8-12p8--------+
B ||---------8---------8----8-|-----8----8----8----8-------|
G ||--------------------------|----------------------------|
D ||--------------------------|----------------------------|
A ||--------------------------|----------------------------|
E +|--------------------------|----------------------------+
E +-----------------12-------17|---------------------------+
B |-----13h15p13-b15--b15-b15--|b15-b15-b15p13--13---------|
G |12/14-----------------------|--------------14-----------|
D |----------------------------|---------------------------|
A |----------------------------|---------------------------|
E +----------------------------|---------------------------+
   -repeat 10x---
E +|----15-15-15-|-----------|------15-17p15--15-|---------+
B ||-b15---------|-b15-15-13-|-15/17--------17---|---------|
G ||-------------|-----------|-------------------|---------|
D ||-------------|-----------|-------------------|---------|
A ||-------------|-----------|-------------------|---------|
E +|-------------|-----------|-------------------|---------+
    ----2x------ ---3x---- -16x-
E +17p15-17p15--|17p15--15|-b18-|--------------------------+
B |-----------17|-----17--|-----|b15-13-----13-15p13--13---|
G |-------------|---------|-----|------1214--------14-----|
D |-------------|---------|-----|--------------------------|
A |-------------|---------|-----|--------------------------|
E +-------------|---------|-----|--------------------------+
E +b15-15-12-----------------------------------------------+
B |---------15-17-17-17-17-1513h15-1312h13-1210h12------|
G |--------------------------------------------------------|
D |--------------------------------------------------------|
A |--------------------------------------------------------|
E +--------------------------------------------------------+
E +------------------------------------5-------------------+
B |108h10-86h8-65h6p5-5p4-4p3-3p2-----8-5h6p5-5---------|
G |---------------------------------b7----------7-b7-b7p5--|
D |------------------------------------------------------7-|
A |--------------------------------------------------------|
E +--------------------------------------------------------+
          -8x- -2x-     -2x- -2x- 8x
E +------|--5|--5-5|--5|--5-5|--5|--|-8-5-5----------------+
B |------|--5|--5-5|--5|--5-5|--5|55|5---8-8-5-6-5-5-------|
G |5-5-5-|b7-|b7---|b7-|b7---|b7-|b7|-------------7-7-5----|
D |---7--|---|-----|---|-----|---|--|----------------------|
A |------|---|-----|---|-----|---|--|----------------------|
E +------|---|-----|---|-----|---|--|----------------------+
E +--------------------------------------------------------+
B |55-55-33-33-88--88--55-55-33-55-55-33-33-88--88--55-55--|
G |b7-b7-b5-b5-b10-b10-b7-b7-b5-b7-b7-b5-b5-b10-b10-b7-b7--|
D |--------------------------------------------------------|
A |--------------------------------------------------------|
E +--------------------------------------------------------+

return to main verse riff

Important: The song above is NOT stored on the Chordie server. The original song is hosted at www.guitaretab.com. Chordie works as a search engine and provides on-the-fly formatting. Chordie does not index songs against artists/composers will. To remove this song please click here.

Text color:
Chord color:
Chord grids: 
Font size:    
Page size: 

Bb C Eb G
variations - click chord images

Login - add to songbook

Transpose chords

Tuning

Rating click stars to rate

Layout
Accuracy

SHARE PAGE  




You need to log in to post comments