Guitar Tabs, Chords and Lyrics


Talk   Coldplay



Artist: Coldplay
Album: X&Y
Song: Talk
Tabbed by: Derek5272 (with some help from his dad.)

INTRO

e|----15-13-------------------
B|----------15-13----13-15----
G|-15-------------15-------12-
D|----------------------------
A|----------------------------
E|----------------------------  x4

e|----------------------------
B|-15----15-15-15-1513-------
G|----12----------------14----
D|-------------------------15-
A|----------------------------
E|----------------------------

CHORUS

e|----15-13-------------------
B|----------15-13----13-15----
G|-15-------------15-------12-
D|----------------------------
A|----------------------------
E|----------------------------  x3

e|----15----------------------
B|-------15-15-15-1513-------
G|-12-------------------14----
D|-------------------------15-
A|----------------------------
E|----------------------------

INTERLUDE

e|----------------------------
B|-16----16----16----16-------
G|----12----12----12----12----
D|----------------------------
A|----------------------------
E|----------------------------  x2

e|----------------------------
B|-15----15----15----15-------
G|----12----12----12----12----
D|----------------------------
A|----------------------------
E|----------------------------

e|----------------------------
B|-15-------------------------
G|----12-15-12-14-15-14-12----
D|----------------------------
A|----------------------------
E|---------------------------- 		

Important: The song above is NOT stored on the Chordie server. The original song is hosted at www.guitartabs.cc. Chordie works as a search engine and provides on-the-fly formatting. Chordie does not index songs against artists/composers will. To remove this song please click here.

This song is displayed as text-only. Transposing and tuning is only available for chordpro-songs.

Login - add to songbook

Rating click stars to rate

Layout
Accuracy

Jango Player

SHARE PAGE  




You need to log in to post comments

rkautz4 (report)

Cool Dereck! how about?
e----15-13-13-10-13-12-11-10
B--11-----------------------
G---------------------------
D---------------------------
A---------------------------
E---------------------------

and then

e---13-13-13-13-12-11-10---