Guitar Tabs, Chords and Lyrics


Sweet Home Chicago Intro   Magic Sam



     ----------------------------------------
     ----------------------------------------
     ----------------------------------------     x2
     --5>12--12-12--5>12--12-12-11-----------
     ----------------------------------------
     ---------------------------------------- 


     -----------------------------------------------------
     -----------------------------------------------------
     -----------------------------------------------------
     --10--9~---------------------------------------------
     ---------12-12-12-11-11-11-10-10-10-9-9-9-8----------
     --------------------------------------------10-11-12-


        There ya go, i studied "the blues brothers" as they played and i think
        its 100% correct!!!!!!!!!!!!!
 		

Important: The song above is NOT stored on the Chordie server. The original song is hosted at www.guitartabs.cc. Chordie works as a search engine and provides on-the-fly formatting. Chordie does not index songs against artists/composers will. To remove this song please click here.

This song is displayed as text-only. Transposing and tuning is only available for chordpro-songs.

Login - add to songbook

Rating click stars to rate

Layout
Accuracy

SHARE PAGE  




You need to log in to post comments