Guitar Tabs, Chords and Lyrics


Blues Riff   Misc

Author/Artist: misc.
Title: Blues Riff.
Album: N/A
Transcribed by: Branden Sheets
Email: Powerman3114@aol.com

This is a tab that will last for hours.  Its one long cycle
so keep playing.  Use your own tempo through out if
you want to.  For a real treat, play as fast as you can.

-4-0-2-0---------|------------------------------------------------------------
-----------------|------------------------------------------------------------
---------4-3-2-1-|------------------------------------------------------------
-----------------|------------------------------------------------------------
-----------------|-0-1-2-2-1-0---------4-4-5-5-4-2-2-4-5-4-2---------4-4-5-5--
-----------------|-------------3br-0-0-----------------------3br-0-0----------
  intro (fast)   |  body (slow)                                               

------------------------------------------------------------------------------
-----------------------------------5-3----------------------------------------
---------------------------------------4-2-2-h4-2-0---------------------------
-----------------------4-4-5-5-4-2--------------------------------------------
-4-2-2-------------0-0----------------------------------4-4-5-5-4-2-2---------
-------0-0-2-2-3-3----------------------------------0-0---------------0-0-2---
                                                                              

-------------2-------------0------------4-----3-----2-----0----|-2-0----4-3---
---------------0-------------2------------0-----0-----0-----0--|-0-2----0-0---
-----------2-----2-0-----2-----2-0-4-4-----3-----2-----1-----1|-2-2-/4-4-3---
---------1-------------2---------------------------------------|-1-2----------
-------2-------------0-----------------------------------------|-2-0----------
-2-3-3---------------------------------------------------------|--------------
                                                               | outro (fast) 

-2-0-0------------------------------------------------------------------------
-0-0-0------------------------------------------------------------------------
-2-1-1------------------------------------------------------------------------
------------------------------------------------------------------------------
------------------------------------------------------------------------------
------------------------------------------------------------------------------
         *once started keep body in cycle, use outro only when finished       

 		

Important: The song above is NOT stored on the Chordie server. The original song is hosted at www.guitartabs.cc. Chordie works as a search engine and provides on-the-fly formatting. Chordie does not index songs against artists/composers will. To remove this song please click here.

This song is displayed as text-only. Transposing and tuning is only available for chordpro-songs.

Login - add to songbook

Rating click stars to rate

Layout
Accuracy

SHARE PAGE  




You need to log in to post comments