Guitar Tabs, Chords and Lyrics


Roadhouse Blues  Doors

--------------------------------------------------
--------------------------------------------------
--------------------------------------------------
--------------------------------------------------
--------------------------------------------5h6h7-
-0--0--0--0--0--0--5h6h7--0--0--0--0--0--0--------
-----------------------------------------
-----------------------------------------
-----------------------------------------
--------------------------5--------------
-----------------------------7h5p7---5---
-0--0--0--0--0--0--5h6h7-----------7---7-

(1)[E7]keep your eyes on the road, your hands upon the wheel
(2)in back of the roadhouse we've got some bungalows
(3)well, i woke up this morning, i got myself a beer

keep your eyes on the road, your hands upon the wheel
in back of the roadhouse we've got some bungalows
well, i woke up this morning, i got myself a beer

pre chorus
--------------------------------------------------------
--------------------------------------------------------
--------------------------------------------------------
------------------------------------------5-------------
-5---5---5-------7-5------------------------7p5h7---5---
---7---7---7---------7-5-3b4--0-0--5h6h7----------7---7-


we're going to the roadhouse we're gonna have a real, good time
and that's for the people who like to go down slow
the futures uncertain and the end is always near

chorus
------------------------
------------------------
------------------------
------------------------
-7--7--7--7--7--7--9--7-
-5--5--8--9--5--5--5--5-              


let it roll, baby roll
let it roll, baby roll
let it roll, baby roll
(1,2)le[B7]t it roll     [C7]     [B7]    all night long
(3)  le[B7]t it roll     [C7]     [C
solo
(3X )
-------13-13-------13-13--------13-13-------13-13---
-------13-13-------13-13--------13-13-------13-13---
-15b16-------15b16--------15b16-------15b16---------
----------------------------------------------------
----------------------------------------------------
----------------------------------------------------
-------13-13-------13----------------16b17-16-13-
-------13-13-------13-15b-15-----13--------------
-15b16-------15b16-----------15b-----------------
-------------------------------------------------
-------------------------------------------------
-------------------------------------------------
-------13-------13-------13-13-------13-13-------13-13------------
-16b17----16b17----16b17-------16b17-------16b17------16b17r16p13-
------------------------------------------------------------------
------------------------------------------------------------------
------------------------------------------------------------------
------------------------------------------------------------------
-------------------------------------------------------
-------13-13-------13-13----------------13----------13-
-15b16-------15b16-------15b16r15p13----13-15p13----13-
-------------------------------------15----------15----
-------------------------------------------------------
-------------------------------------------------------    

(4x )
---------------------------- --------------- -5b-5p3---
---------------------------- -----3--------- --------5-
------9-------9-----9-----9- -4s5---2b3-0--- ----------
-9h11----9h11---9h11---9h11- -------------2- ----------
---------------------------- --------------- ----------
---------------------------- --------------- ----------  

ashen lady give up your vow
ashen lady give up your vow
save our city
save our city
right now

outro
                                  [E]  [E9]                                  
-16b17-13-----------------------------
----------16-13-------------------9-7-
----------------15b16r15-13----13-9-7-
----------------------------15----9-6-
----------------------------------7-7-
--------------------------------------

Important: The song above is NOT stored on the Chordie server. The original song is hosted at www.guitartabs.cc. Chordie works as a search engine and provides on-the-fly formatting. Chordie does not index songs against artists/composers will. To remove this song please click here.

Text color:
Chord color:
Chord grids: 
Font size:    
Page size: 

B7 C7 E E7 E9
variations - click chord images

Login - add to songbook

Transpose chords

Tuning

Rating click stars to rate

Layout
Accuracy

SHARE PAGE  




You need to log in to post comments