Guitar Tabs, Chords and Lyrics


Breakfast At Tiffanys  Deep Blue Something



----------------------------------------------


----------------------------------------------


-----------------------------------------------------

You s[D]ay that [G]we've got no[A]thing in co[D]mmon
No c[G]ommon g[A]round to s[D]tart from
[G]And we're falli[A]ng apa[D]rt[G] [A]
You'll s[D]ay the wo[G]rld has c[A]ome betwe[D]en us
Our l[G]ives have c[A]ome betw[D]een us
[G]But I know y[A]ou just don't c[D]are[G] [A]
CHORUS: (D A G)
And [D]I said what about "[A]Breakfast at T[G]iffany's?
S[D]he said, "I think I reme[A]mber the fil[G]m,
And as [D]I recall, I think, we b[A]oth kinda l[G]iked it."
And [D]I said, "Well, that's the o[A]ne thing we've [G]got."
SOLO-1: (with D G A x 2 in backgound)
e|-----------------------------|
b|-----------------------------|
g|-----------------------------|
d|-5-5-5-4-2-4-0---------2-2-0-|
a|---------------0-2-2-4-------|
E|-----------------------------|

VERSE-2: (D G A)
I s[D]ee you - the [G]only [A]one who k[D]new me
And n[G]ow your ey[A]es see thr[D]ough me
I g[G]uess [A]I was wr[D]ong[G] [A]
So w[D]hat now?  It's [G]plain to [A]see we're [D]over,
And I h[G]ate when th[A]ings are o[D]ver -
When s[G]o much is le[A]ft undo[D]ne[G] [A]
CHORUS
VERSE-1
CHORUS
SOLO-2 (with D G A x 4 in background):
e|-----------------------------------------|
b|-----------------------------------------|
g|-----------------------------------------|
d|-5-5-5-4-2-4-0-----------2-2-0-----------|
a|---------------0-2-2-2-4-------0-2-2-2-4-|
E|-----------------------------------------|
e|-3-3-3-2-0-2-----------0-0-----------|
b|-------------3-0-0-0-2-----3-0-0-0-2-|
g|-------------------------------------|
d|-------------------------------------|
a|-------------------------------------|
E|-------------------------------------|

CHORUS x 2
SOLO-3 x 2 (with D-G-A in background of SOLO 3):
e|-3-3-3-2-0-2-----------0-0-----------|
b|-------------3-0-0-0-2-----3-0-0-0-2-|
g|-------------------------------------|
d|-------------------------------------|
a|-------------------------------------|
E|-------------------------------------|
-----------------------------------------------------

note: add distortion on chorus
add delay/reverb on chorus
Send comments to:
XPhileDan@aol.com
=)

Important: The song above is NOT stored on the Chordie server. The original song is hosted at www.guitartabs.cc. Chordie works as a search engine and provides on-the-fly formatting. Chordie does not index songs against artists/composers will. To remove this song please click here.

Text color:
Chord color:
Chord grids: 
Font size:    
Page size: 

A D G
variations - click chord images

Login - add to songbook

Transpose chords

Tuning

Rating click stars to rate

Layout
Accuracy

SHARE PAGE  




You need to log in to post comments