Guitar Tabs, Chords and Lyrics


Waiting For a Girl Like You  Foreigner

E---8----------7-------------------------------
B------------------------10-----------8--------
G--------9---------9------------9-----------7--
D----------------------------------------------
A----------------------------------------------
E----------------------------------------------


   [G6]                                                      
E----------------------------------------------
B--10----------8-------------------------------
G--------7-----------7------9------------------
D---------------------------------10-----7-----
A--------------------------------------------7-
E----------------------------------------------


[Am]So....l[G6]ong I've been l[Am]ooking too hard
I've been w[G6]aiting to long
S[Am]ometimes I don't know w[G6]hat I will find
[Am]I only know it's a m[G6]atter of time
When you l[Em]ove someone [D]  when you l[Em]ove someone [D]
It f[Em]eels so right  so w[D]arm and true
[Em]I need to know if you f[D]eel it t[E]oo
[Fmaj7]Maybe I'm wr[G]ong  won't you [Fmaj7]tell me if
I'm coming [G]on too strong
This [Fmaj7]heart of mine has been h[G]urt before
[Fmaj7]This time I wanna be s[G]ure
Chorus:

I've been w[Dm]aiting for a girl like you

To c[Bb]ome into my l[Dm]ife
I've been w[Dm]aiting for a girl like you
A l[Bb]ove that will surv[Dm]ive
I've been w[Dm]aiting for someone new
To m[Bb]ake me feel al[Dm]ive
Yeah w[Dm]aiting for a girl like you
To c[Bb]ome into my l[Gm]ife
(Intro Riff Twice)

You're [Am]so...g[G6]ood

When [Am]we make love it's [G6]understood
It's m[Am]ore than a touch or a w[G6]ord we say
[Am]Only in dreams could it [G6]be this way
When you l[Em]ove someone[D]  yeah really l[Em]ove someone[D]
It f[Em]eels so right  so w[D]arm and true
[Em]I need to know if you f[D]eel it t[E]oo
[Fmaj7]Now I know it's r[G]ight
From the [Fmaj7]moment I wake up til d[G]eep in the night
There's [Fmaj7]nowhere on earth that I'd r[G]ather be
Then holding[Fmaj7] you tenderl[G]y
(Chorus)


(Outro On Intro Riff With Ad Lib Lyrics To Fade)

Important: The song above is NOT stored on the Chordie server. The original song is hosted at www.guitartabs.cc. Chordie works as a search engine and provides on-the-fly formatting. Chordie does not index songs against artists/composers will. To remove this song please click here.

Text color:
Chord color:
Chord grids: 
Font size:    
Page size: 

Am Bb D Dm E Em Fmaj7 G G6 Gm
variations - click chord images

Login - add to songbook

Transpose chords

Tuning

Rating click stars to rate

Layout
Accuracy

SHARE PAGE  




You need to log in to post comments