Guitar Tabs, Chords and Lyrics


Waiting On An Angel   Ben Harper





ARTIST: Ben Harper
SONG: Waiting On An Angel
TABBED BY: Moses Brown             browneye_023@yahoo.com.au


Ok the version of this on the album is tuned down a whole step, 
but if you can't be bothered it still sounds heaps good with 
standard tuning. Actually the Hollywood Bowl concert he just 
plays it with normal tuning, and it sounds great. The chords 
used in this song are basic but the hard part is the pattern 
he uses which is kinda complicated, but if you follow the 
instructions you should be sweet. Enjoy!


p = pull off
h = hammer on


Intro / Verse  (Part 1)

d--------------------------------------------------------|
A------1--1-------1--1---------1--1p0-------0--0h1-------|
F------0--0-------0--0---------0--0---------0--0---------|
C--------------------------------------------------------|
G---3---------2-----------0------------------------------|
D---------------------------------------3----------------|
    
    Waiting       on an angel
    One   to carry   me home
    Hope you come   to see me soon


Play Part 1 three times for VERSE then there's a slight change:


Part 2

d---------------------------------------------------------------------------|
A------1--1-------0--0h1------1--1-------0--0--------1--1-------0--0h1------|
F------2--2-------0--0--------0--0-------0--0--------2--2-------0--0--------| then back 
C---------------------------------------------------------------------------| to Part 1
G-------------------------0-------------------------------------------------|
D---1---------3----------------------3-----------1----------3---------------|

Cause I dont want to go   alooooone              I  dont want to go alone  


NOTE: When it goes "fly with thee" play first half of Part 1 before Chorus


CHORUS 

d------------------------------------------------------------------------------------------------
A------1--1-------0--0h1------1--1-------0--0-------1--1-------0--0h1-------1--1-------1--1------
F------2--2-------0--0--------0--0-------0--0-------2--2-------0--0---------0--0-------0--0------
C------------------------------------------------------------------------------------------------
G-------------------------0---------------------------------------------3-----------2------------
D---1----------3---------------------3----------1----------3-------------------------------------
   And I'm waiting on an angel,         and I  know it    won't be     long


---------------------------------------------------------------------------------------------------------------------------|
---------1--1-------0--0h1------1--1-------0--0-------1--1-------0--0h1--------1--1--------1--1-------1--1-------0--0h1----|
---------2--2-------0--0--------0--0-------0--0-------2--2-------0--0----------0--0--------0--0-------2--2-------0--0------|
---------------------------------------------------------------------------------------------------------------------------|
----------------------------0---------------------------------------------3-----------2------------------------------------|
-----1----------3----------------------3----------1----------3------------------------------------1-----------3------------|
 to find myself...         resting   place   in   my       angel's       arms              in my angel's arms




Waiting on an angel
one to carry me home
hope you come to see me soon
cause I don't want to go alone
I don't want to go alone

Now angel won't you come by me
angel hear my plea
take my hand lift me up
so that I can fly with thee
so that I can fly with thee

And I'm waiting on an angel
and I know it won't be long
to find myself a resting place
in my angel's arms
in my angel's arms

So speak kind to a stranger
cause you'll never know
it just might be an angel come
knockin' at your door
knockin' at your door

And I'm waiting on an angel
and I know it won't be long
to find myself a resting place
in my angel's arms
in my angel's arms

Waiting on an angel
one to carry me home
hope you come to see me soon
cause I don't want to go alone
I don't want to go alone
don't want to go
I don't want to go alone


 		

Important: The song above is NOT stored on the Chordie server. The original song is hosted at www.guitartabs.cc. Chordie works as a search engine and provides on-the-fly formatting. Chordie does not index songs against artists/composers will. To remove this song please click here.

This song is displayed as text-only. Transposing and tuning is only available for chordpro-songs.

Login - add to songbook

Rating click stars to rate

Layout
Accuracy

SHARE PAGE  




You need to log in to post comments