Guitar Tabs, Chords and Lyrics


Bitter  Sobule Jill

E-----------------------------------------------
B---------------3--------6----------------------
G-----------3-----------------------------------
D-----------------------------------------------
A-----------------------------------------------
E-----------------------------------------------

#


E--5----------------6---------5-----------------
B----------8--------------6---------------------
G-----------------------------------------------
D-----------------------------------------------
A-----------------------------------------------
E-----------------------------------------------

#


E-----------------3-----------------------------
B----------4--------------3---------------------
G-----------------------------------------------
D-----------------------------------------------
A-----------------------------------------------
E-----------------------------------------------

#


E--1---------------3----------------------------
B----------4----------------6-------------------
G-----------------------------------------------
D-----------------------------------------------
A-----------------------------------------------
E-----------------------------------------------

##II


E-5-----------------------------5---------------
B----------------3---------6--------------------
G-----------3-----------------------------------
D-----------------------------------------------
A-----------------------------------------------
E-----------------------------------------------

#


E----------6-------5------------3---------------
B--8------------6---------4---------------------
G-----------------------------------------------
D-----------------------------------------------
A-----------------------------------------------
E-----------------------------------------------

#


E------------1----------------------------------
B--3------------------4-------------------------
G-----------------------------------------------
D-----------------------------------------------
A-----------------------------------------------
E-----------------------------------------------

#


E-------3------------5--------------------------
B--------------6--------------------------------
G-----------------------------------------------
D-----------------------------------------------
A-----------------------------------------------
E-----------------------------------------------

##CHORUS:
[Gm]I don't wanna get [Dm]bitter
[Gm]I don't wanna turn [Dm]cruel
[Gm]I don't wanna get [Dm]old before I [C]have to

III
I could b[Bb]itch, I could m[Dm]oan
Say I [Gm]want to be left al[Dm]one
But t[Eb]hat's not really t[Dm]rue,
Because I l[Eb]ike my time with y[F]ou

IV
Till you r[Bb]ant and you r[Dm]ave
Wishing [Gm]fat folks to their g[Dm]rave
Say yo[Eb]u feel sorry [Dm]for them
You say they [Eb]get what they des[F]erve

Chorus 1:
Well [Gm]I don't wanna get [Dm]bitter
[Gm]I don't wanna tur[Dm]n cruel
[Gm]I don't wanna get o[Dm]ld before I h[C]ave to

Chorus 2:
[Gm]I don't wanna get [Dm]jaded
[Gm]Petrified and [Dm]weighted
[Gm]I don't wanna get [Dm]bitter like y[C]ou

Like [Cm]you, with the darts in your e[Gm]yes
Like [Cm]you, with disdain for mank[Gm]ind
I [G7]was charmed, [C7]now I wonder

Chorus 1:
Well [Gm]I don't wanna get [Dm]bitter
[Gm]I don't wanna turn [Dm]cruel
[Gm]I don't wanna get [Dm]old before I h[C]ave to

E----------------3------------------------------
B-----------3-------------6---------------------
G-----------------------------------------------
D-----------------------------------------------
A-----------------------------------------------
E-----------------------------------------------

So I'll smile with the rest

E--5-----------6-----------5---------------------
B---------8-------------6-----------------------
G-----------------------------------------------
D-----------------------------------------------
A-----------------------------------------------
E-----------------------------------------------

Wishing everyone the best

E---------------3-------------------------------
B----4------------------3-----------------------
G-----------------------------------------------
D-----------------------------------------------
A-----------------------------------------------
E-----------------------------------------------

And know the one who made it,

E--1----------------3-----------------5---------
B---------4---------------------6---------------
G-----------------------------------------------
D-----------------------------------------------
A-----------------------------------------------
E-----------------------------------------------

cuz she actually was pretty good, well


Chorus 1:
E----------6----------------5-------------------
B-8------------------6--------------------------
G-----------------------------------------------
D-----------------------------------------------
A-----------------------------------------------
E-----------------------------------------------

I don't wanna get bitter

E----------6----------------5-------------------
B-8------------------6--------------------------
G-----------------------------------------------
D-----------------------------------------------
A-----------------------------------------------
E-----------------------------------------------

I don't wanna turn cruel

E----------6---------------5----------0-----3---
B-8------------------6------------1---------1---
G-----------------------------------------------
D-----------------------------------------------
A-----------------------------------------------
E-----------------------------------------------

I don't wanna get old before I have to

Chorus 2:
(one downward strum for each chord)
Well [Gm]I don't wanna get [Dm]jaded
[Gm]Petrified and w[Dm]eighted
[Gm]I don't wanna get [Dm]bitter like [C]you
Like y[Bb]ou

Important: The song above is NOT stored on the Chordie server. The original song is hosted at www.guitartabs.cc. Chordie works as a search engine and provides on-the-fly formatting. Chordie does not index songs against artists/composers will. To remove this song please click here.

Text color:
Chord color:
Chord grids: 
Font size:    
Page size: 

Bb C C7 Cm Dm Eb F G7 Gm
variations - click chord images

Login - add to songbook

Transpose chords

Tuning

Rating click stars to rate

Layout
Accuracy

SHARE PAGE  




You need to log in to post comments