Guitar Tabs, Chords and Lyrics


Sweet Child O Mine 1st And 2nd Solos   Guns N'Roses


Sweet Child O Mine 1st and 2nd Solos

Guns N Roses - Appetite for Destruction

Transcribed by Brian S.

Since no one ever did these!!!

Tune down 1/2 step.

1st Solo :
e-----------------------------------------------------------|
b---/10--8--7vvvv-/10--8--7vvv--/10--8--------/10--8--------|
g---------------------------------------9vvv----------9vvv--|
d-----------------------------------------------------------|
b-----------------------------------------------------------|
e-----------------------------------------------------------|

e---------------------------------10-------------------|
b--/10--8vvvvv-10b12r10p8--10-b12----10----------------|
g---------------------------------------7vvvvvv---7--7-|
d------------------------------------------------------|
b------------------------------------------------------|
e------------------------------------------------------|

2nd Solo :
e-----------------------------------------------------------|
b---/10--8--7vvvv-/10--8--7vvv--/10--8--------/10--8--------|
g---------------------------------------9vvv----------9vvv--|
d-----------------------------------------------------------|
b-----------------------------------------------------------|
e-----------------------------------------------------------|

e-------------------------------------------10--------------|
b--/10--8vvvvv--/10--8vvvvv--7b8r7---7b8vv-----7b8r7vvvvvv--|
g----------------------------------7------------------------|
d-----------------------------------------------------------|
b-----------------------------------------------------------|
e-----------------------------------------------------------|

e------------------------------10--10--8vvvv--10bvvvvv-12--12-10-|
b---/10--8--7vvvv-/10--8---10b------------------------------------|
g-----------------------------------------------------------------|
d-----------------------------------------------------------------|
b-----------------------------------------------------------------|
e-----------------------------------------------------------------|

e--10-8vvvv--7b8r7----------------------------10--10bvvr10--|
b-------------------8-------10b12r10p8---10b12---------------|
g---------------------7vvv-------------9---------------------|
d------------------------------------------------------------|
b------------------------------------------------------------|
e------------------------------------------------------------|

e--------17vvvvv----|
b---17bvvvvvvvvv----|
g-------------------|
d-------------------|
b-------------------|
e-------------------|
 		

Important: The song above is NOT stored on the Chordie server. The original song is hosted at www.guitartabs.cc. Chordie works as a search engine and provides on-the-fly formatting. Chordie does not index songs against artists/composers will. To remove this song please click here.

This song is displayed as text-only. Transposing and tuning is only available for chordpro-songs.

Login - add to songbook

Rating click stars to rate

Layout
Accuracy

SHARE PAGE  




You need to log in to post comments