Guitar Tabs, Chords and Lyrics


Love of My Life Acoustic   Queen



Love Of My Life.
Artist: Queen

This song is played live by Brian May using a 12 sting acoustic guitar.
I've been playing the Guitar since I was 16 and the only thing I can say is
try to learn the finger placements slowley. learn them like the back of 
your hand then try to build speed. I try to play about 4 hours a day but thats
because I started to play later than most.(OR I KEEP THINKING THAT I HAVE)
GOOD LUCK and remember the only way to become good is to stick with it!

e|----------------2---------------------2---------0-----------0-------------
B|-------3--2--3--------3------3--2--3------------0--------0--------3-------
G|----2--------------2---------4--------------4---0-----0--------0-----0----
D|-0---------------------------4-----------4------2--2----------------------
A|-------------------------4---2------------------2-------------------------
E|------------------------------------------------0-------------------------

e|---------------------------------2------------------2---------------------
B|-2-----3-----5-----2---3--2--3------------3—-2--4--------3---------------
G|-2----------------------2------------------4-----------------------4---4--
D|-2-----4-----5-----2---0-----------0------4-----------4--------4------5--
A|-0--0-----0------0---------------------4---2-----------------0---------5--
E|-----------------------------------------------------------------------3--

e|----0-----------0----------------------------0---------------0------------
B|-3-----3-----3-----3--------------------------------2—--------------------
G|----------2-----------1-----2-----4--/--7~~-----7---2--1--2--------2------
D|----------0-----------0-----4-----6--/--9~~---------2-----------2---------
A|----------------------2-----------------------------0---------------------
E|----------2-----------0--0-----0-----0----------0---------------------4---

e|--------------------------------2----------------------------------------
B|-------2-----2---------3--2—-3------------------------------------2—-0---
G|-------2--------2------4--------------4-----3---1-----2-----41—--2----2-
D|----4-----4--------X---4-----------4-----4------2-----4-----62—--2------
A|-----------------------2------------------------2-----------------0------
E|-2----------------------------------------------0--0-----0---------------

e|-2---0--(2)—-------------2-------------------------------------------------
B|-2---2-------3—----3-----------3------3-------------2---------2---3--2-----
G|-2---2-------2—-2-----2---------------4------4------2------2------4-----4--
D|-5---5-------0--------------0---------4---4-----4---4---4---------5--------
A|-0---0----------------------------4---2------------------------------------
E|----------------------------------------------------2-------------3--------

e|-------------3-------2---------------0---------------------------------2---
B|-----3---3---3---3---3---3---3-------0--------3--2--------3---------3------
G|-4—--2---2---4-------2-------4---4---0-----0-----2-----2---------2---------
D|-5---0---0---5-------0-------4-------2--2--------2—-2---------0------------
A|-------------5---------------2-------2-----------0-------------------------
E|-3-----------3-----------------------0-------------------------------------
 		

Important: The song above is NOT stored on the Chordie server. The original song is hosted at www.guitartabs.cc. Chordie works as a search engine and provides on-the-fly formatting. Chordie does not index songs against artists/composers will. To remove this song please click here.

This song is displayed as text-only. Transposing and tuning is only available for chordpro-songs.

Login - add to songbook

Rating click stars to rate

Layout
Accuracy

SHARE PAGE  




You need to log in to post comments