Guitar Tabs, Chords and Lyrics


A Dios Le Pido  Juanes

e-8-8-8--5-5-5--3-3-3---------------------5/
b-8-8-8--5-5-5--3-3-3-----3-3---3-3---3----/
g-5-5-5--5-5-5--4-4-4--0-4---0-4---0-4-4-5-/
d------------------------------------------/  X 2
a------------------------------------------/
E------------------------------------------/
e-----------------------------5----5----5-4------------------4-5/
b--5-5-5-5-5-3-3---3-3---3-------5---5-------5------------------/
g-5-5-5-------4-4-5---4-5-4-5---5-5-5-5---------4-7-5-4-5-4-----/
d----------------------------------------------6-------7---7----/
a---------------------------------------------------------------/
E---------------------------------------------------------------/



Chords
[Am]Que mis ojos se despierten, con la luz de tu mi[E7]rada, yo
A dios le p[Am]ido !
[Am]que mi madre  no se muera y que mi padre me rec[E7]uerde,
A dios le p[Am]ido !
[Am]Que te quedes a mi lado y mas nunca te me [E7]vallas mi vida,
A dios le [Am]pido !
[Am]que mi alma no descanse cuando de amarte se [E7]trate, mi cielo,
A dios le [E7]pido !
[Am]por los dias que me quedan y las noches que aun no [E7]llegan, yo
A dios le [Am]pido !
[Am]por los hijos de mis hijos y los hijos de tus [E7]hijos,
A dios le [Am]pido !
[Am]que mi pueblo no derrame tanta sangre y se le[E7]vante mi gente,
A dios le [Am]pido !
[Am]que mi alma no descanse cuando de amarte se [E7]trate mi cielo,
A dios le [Am]pido !


PRE-CHORUS
[Am]Un segundo mas de [G]vida para darte [E7]y mi corazon en[Am]tero entregarte
[Am]un segundo mas de [G]vida para darte [E7]y a tui lado para si[Am]empre yo quedarme
[Am]un segundo mas de v[E7]ida yoooooooo !   a dios le pido !


CHORUS
[C]Que si me muero sea de a[G]mor, y si me enamoro sea de v[Am]oz,
y que de tu voz sea este cora[G]zon, todos los dias a dios le [Am]pido.  x 3

[C]Que si me muero sea de a[G]mor, y si me enamoro sea de v[Am]oz
y que de tu voz sea este cora[G]zon, todos los dias [E7]yoooooooo
a dios le p[Am]ido !

Important: The song above is NOT stored on the Chordie server. The original song is hosted at www.guitartabs.cc. Chordie works as a search engine and provides on-the-fly formatting. Chordie does not index songs against artists/composers will. To remove this song please click here.

Text color:
Chord color:
Chord grids: 
Font size:    
Page size: 

Am C E7 G
variations - click chord images

Login - add to songbook

Transpose chords

Tuning

Rating click stars to rate

Layout
Accuracy

SHARE PAGE  




You need to log in to post comments