Guitar Tabs, Chords and Lyrics


King of Glory  Third Day

  [E2]     [A]  [C
E|-0-|---|-4-|-4-|-2-|---||
B|-5-|-2-|-5-|-4-|-4-|---||
G|-4-|-2-|-7-|-7-|-4-|-1-||
D|-x-|-2-|-6-|-6-|-4-|-2-||
A|-x-|---|-4-|-4-|-2-|-2-||
E|-x-|---|-x-|-x-|-x-|---||


(): Optional notes

Riff 1
E|(0)-(0)---(0)-----(0--0-0)-(0)(0-0)------------------------|
B|-5---5-----5-4h5p4-0--4-2---2--4-2-------------------------|
G|-4-4-4-----4-4-----5--4-2---2--4-4-------------------------|
D|------------------------2-2-2------------------------------|
A|-----------------------------------------------------------|
E|-----------------------------------------------------------|



-Verse 1-
(Riff 1)
Who is this King of glory that pursues me with His love

And haunts me with each hearing of His softly spoken words


My c[A]onscience, a reminder of for[C    B                    A                  (Riff 1 w/ Guitar 2
Who is this King of glory who offers it to me playing chords)


-Verse 2-
Who [E2]is this King of angels, O b[A]lessed Prince of Peace
Rev[E2]ealing things of Heaven and [A]all its mysteries

My [A]spirit's ever longing for His g[CWbo B]is this King of glory[A] Son of God and son of man

-Chorus-
His name is J[A]esus, precious[CTbe Lord AlmB]ighty, the King of [A]my heart
The King of glory


-Verse 3- (Played same as Verse 2)

Who is this King of glory with strength and majesty
And wisdom beyond measure, the gracious King of kings
The Lord of Earth and Heaven, the Creator of all things
Who is this King of glory, He's everything to me


-Bridge-

The L[A]ord of Earth and Heaven, the Cre[CBe B]is the King of glory,[A] He's everything to me[E]

Important: The song above is NOT stored on the Chordie server. The original song is hosted at www.guitartabs.cc. Chordie works as a search engine and provides on-the-fly formatting. Chordie does not index songs against artists/composers will. To remove this song please click here.

Text color:
Chord color:
Chord grids: 
Font size:    
Page size: 

A E E2
variations - click chord images

Login - add to songbook

Transpose chords

Tuning

Rating click stars to rate

Layout
Accuracy

SHARE PAGE  




You need to log in to post comments