Guitar Tabs, Chords and Lyrics


Heart of Gold  Neil Young

        [EADGBE]                             
Em7022030
D 000323
C x32010
G 320003
Em 022000
Am7 x02010
INTRO:

You can replace the first two notes by the hammer-ons in the end of the riff.

   [Em7]          [D]              [Em]                                                                                           
e |--------0---0---0---0---0---0---0-|-2---(2)---2---0-----------------|
B |--------3---3---3---3---3---3---3-|-3---(3)---3---0-----------------|
G |--------0---0---0---0---0---0---0-|-2---(2)---2---0-----------------|
D |--------2---2---2---2---2---2---2-|-0---(0)---0---2------------0h2--|
A |--------2---2---2---2---2---2---2-|---------------2-------0h2---h2--|
E |-(0)-0--0---0---0---0---0---0---0-|---------------0-----------------|


   [Em7]       [D]              [Em]                                                                                              
e |--------0---0---0---0---0---0---0-|-2---(2)---2---0-----------------|
B |--------3---3---3---3---3---3---3-|-3---(3)---3---0-----------------|
G |--------0---0---0---0---0---0---0-|-2---(2)---2---0-----------------|
D |--------2---2---2---2---2---2---2-|-0---(0)---0---2------------0h2--|
A |--------2---2---2---2---2---2---2-|---------------2-------0h2---h2--|
E |--0-----0---0---0---0---0---0---0-|---------------0-----------------|

After you played this two riffs you can go over in progression with
the Em,C,D,G chords along with the harmonica. Do that 3 times and play
the first piece of the intro tab:
           [Em7]          [D]              [Em]                                                                                   
e |--------0---0---0---0---0---0---0-|-2---(2)---2---0-----------------|
B |--------3---3---3---3---3---3---3-|-3---(3)---3---0-----------------|
G |--------0---0---0---0---0---0---0-|-2---(2)---2---0-----------------|
D |--------2---2---2---2---2---2---2-|-0---(0)---0---2------------0h2--|
A |--------2---2---2---2---2---2---2-|---------------2-------0h2---h2--|
E |--0-----0---0---0---0---0---0---0-|---------------0-----------------|


This is an examples of how you can eventually play the verses:
Play the chorus in the rhytm like the intro.

           [Em]         [C]                [D] [G] 
e |----------------0---0--(0)-----|------2---(0)--3---3---(0)-------|
B |----------------1---1--(0)-----|------3---(0)--0---0---(0)-------|
G |---------0------0---0--(0)-----|--2---2---(0)--0---0---(0)-------|
D |---------2------2---2----------|------0--------0---0-------------|
A |-------2---0----3---3----------|-0-------------2---2-------------|
E |---0---------------------------|---------------3---3-------------|


This is the riff Neil plays while singing the last verse:
"And I'm getting old".

     [C]                          [Am7]    [G]  
e |--0--0--x--0--0--0--x--0--0--0--3--|
B |--1--1--x--1--1--1--x--1--1--1--0--|
G |--0--0--x--0--0--0--x--0--0--0--0--|
D |--2--2--x--2--2--2--x--2--2--2--0--|
A |--3--3--x--3--3--3--x--3--3--0--2--|
E |--x--x--x--x--x--x--x--x--x--x--3--|



       [Am7]         [G]                     
e |--------------3------------------|
B |--------------0------------------|
G |--------------0------------------|
D |--------------0------------------|
A |-----3--2--0--2------------------|
E |--------------3------------------|


***************************************************************************
More Tabs At: http://members.fortunecity.com/dmedm/gitaar/guitar.htm
***************************************************************************

Important: The song above is NOT stored on the Chordie server. The original song is hosted at www.guitartabs.cc. Chordie works as a search engine and provides on-the-fly formatting. Chordie does not index songs against artists/composers will. To remove this song please click here.

Text color:
Chord color:
Chord grids: 
Font size:    
Page size: 

Am7 C D Em Em7 G
variations - click chord images

Login - add to songbook

Transpose chords

Tuning

Rating click stars to rate

Layout
Accuracy

SHARE PAGE  




You need to log in to post comments