Guitar Tabs, Chords and Lyrics


Without You  Motley Crue

Gtr.2 -[F] elect. w/slide  [Dm]              [F]                    [Dm]
Long Slide
E|----|----------------------------|--------------------------------|
B|----|----------------------------|--------------------------------|
G|-2--|/--10---~~~~----12/14~~~---|-0/7-/-10-1210/12---7-~~~~~~--|
D|----|----------------------------|--------------------------------|
A|----|----------------------------|--------------------------------|
E|----|----------------------------|--------------------------------|


  [Gm]        [Am]       [Bb]                                                                              
E|--------------------------------|
B|-1110--------------------------|
G|--------10--7--7/10-~~~~~~------|
D|--------------------------------|
A|--------------------------------|
E|--------------------------------|


Verse 1:
[F]Without you, there's no [Dm]pain
My [F]nights and days are g[Dm]rey
If I r[Gm]eached out and touched [Am]the [Bb]rain
It just wouldn't feel the [F]same!        [Dm]
Without [F]you, I'd be l[Dm]ost
I'd s[F]lip down from the t[Dm]op
I'd s[Gm]lide down [Am]so [Bb]low
Girl you'd never, never k[F]now         [Dm]

Pre-Chorus: (Gtr.3)
  [Bb]                [A5]                      [G#]                       [C]                                
E|------------------------------------|-------------------------------12-13-12---------|
B|------------------------------------|----------------------------13----------13------|
G|------------------------------------|------------------------/12----------------12---|
D|------------------------------------|----------------------------------------------10|
A|------------------------------------|------------------------------------------------|
E|-6~~~~~~--------5~~~~~~~~~----------|--4~~~~~~~~-------------/8~~~~~~~---------------|

Without you, without you Like a sailor lost at sea

       [Bb]               [A5]                       [G#]                                                  
E|------------------------------------|------------------------------------|
B|------------------------------------|------------------------------------|
G|------------------------------------|-------5------(5)-------------------|
D|-(10)-------------------------------|-------6------(6)-------------------|
A|------------------------------------|-------6------(6)-------------------|
E|------6~~~~~---------5-~~~~~~-------|-------4------(4)-------------------|

Without you wo . man The world comes down on me!

Chorus:
Without [F]you in my l[Dm]ife
I'd s[F]lowly wilt and [Dm]die
Gm Am Bb(Stop)
But with you by my side
You're the reason I'm a[F]live! [Dm]
Gm Am Bb(Stop)
But with you in my life
You're the reason I'm a[F]live! [Dm]
But [Gm]without you wit[/Am]hout [Bb]you!

    Lon[F]g Slide          [Dm]              [F]                    [Dm]
E|----|----------------------------|--------------------------------|
B|----|----------------------------|--------------------------------|
G|-2--|/--10---~~~~----12/14~~~---|---/---10-1210/12---7-~~~~~~--|
D|----|----------------------------|--------------------------------|
A|----|----------------------------|--------------------------------|
E|----|----------------------------|--------------------------------|


  [Gm]        [Am]       [Bb]                                                                              
E|--------------------------------|
B|-1110--------------------------|
G|--------10--7--7/10-~~~~~~------|
D|--------------------------------|
A|--------------------------------|
E|--------------------------------|


Verse:

Without you, my hope is small
Let me be here all alone
Let the fires rage inside
Knowing someday I'll grow strong!

Pre-chorus:
Without you, without you
Like a sailor lost at sea
Without you, woman
The world comes down on me!

Chorus:

Without you in my life
I'd slowly wilt and die
But with you by my side
You're the reason I'm alive!
But with you in my life
You're the reason I'm alive!
But without you without you!

Bridge;
[C]I could face a [G]mountain
But I would n[Bb]ever climb al[F]one
[C]I could start ano[G]ther day
But ho[Bb]w many, I just don't [F]know!

Rythm riff
(With pinch harmonics 2nd time)
E|----------------------|
B|----------------------|
G|----------------------|
D|----------------------|
A|--------0--1--3~~~~---|
E|----1----------------|

[C]You're the reason the[G] sun shines down
And the n[Bb]ights they're not so c[F]old

(with rythm riff)
[C]Only you that I'll[G] hold when I'm young
Only [Bb]you as we grow o[F]ld!

Guitar solo:

    Lon[Bb]g Slide          [Dm]               [G#]                          [C]
E|----|----------------------------|----------------------------------|
B|----|----------------------------|----------------------------------|
G|-2--|/--10~~~~-9/10---5--~~~~---|--5/(7)5--7---5/75---7-----9~~~-|
D|----|----------------------------|----------------------------------|
A|----|----------------------------|----------------------------------|
E|----|----------------------------|----------------------------------|


    Lon[Bb]g Slide          [Dm]               [G#]                           [C]
E|----|----------------------------|----------------------------------|
B|----|----------------------------|----------------------------------|
G|-2--|/--10~~~~-9/10---5--~~~~---|--5/(7)5--7---5/75/75--7--5~~~|
D|----|----------------------------|----------------------------------|
A|----|----------------------------|----------------------------------|
E|----|----------------------------|----------------------------------|


   [Bb]                  [Dm]                 [G#]                                [C]                        
E|---------------------13/(15)13--|-13/(15)--(10)--10/--15~~--13-10-8~~-|
B|----10-11-13-11-10---------------|--------------------------------------|
G|-10----------------10------------|--------------------------------------|
D|---------------------------------|--------------------------------------|
A|---------------------------------|--------------------------------------|
E|---------------------------------|--------------------------------------|

Bb Dm G#(Stop) (Into chorus)
E|-1817---------1817-18-/-20~~~--|-(20)--/4---/6--/8---/11---/-13~~~~--|
B|-------1818----------------------|--------------------------------------|
G|---------------------------------|--------------------------------------|
D|---------------------------------|--------------------------------------|
A|---------------------------------|--------------------------------------|
E|---------------------------------|--------------------------------------|


Chorus:

Without you in my life
I'd slowly wilt and die
But with you by my side
You're the reason I'm alive!
But with you in my life
You're the reason I'm alive!
But without you without you!

Questions, comments or maybe request, please Private Message me if you're a member of GTU!

Important: The song above is NOT stored on the Chordie server. The original song is hosted at www.guitartabs.cc. Chordie works as a search engine and provides on-the-fly formatting. Chordie does not index songs against artists/composers will. To remove this song please click here.

Text color:
Chord color:
Chord grids: 
Font size:    
Page size: 

A5 Am Bb C Dm F G G# Gm
variations - click chord images

Login - add to songbook

Transpose chords

Tuning

Rating click stars to rate

Layout
Accuracy

SHARE PAGE  




You need to log in to post comments