Guitar Tabs, Chords and Lyrics


Ill Be There For You Acoustic  Bon Jovi

e:-------------------------------------------------------------------------------I
B:-------------------------------------------------------------------------------I
G:-5/7-7----7/9-9----9/12-12----12/11-11----5/7-7----7/9-9----9/12--12/11--------I
D:-0------0--------0----------0-------------0------0--------0-----------0--------I
A:-------------------------------------------------------------------------------I
E:-------------------------------------------------------------------------------I 

I guess this time you're really lea[Em]ving     [G]
I heard your suitcase say goo[D]dbye         [D]
And as my broken heart lies ble[Em]eding      [G]
D *STOP*
You say true love is suicide
You say you've cried a thousand ri[Em]vers      [G]
And now you're swimming for the s[D]hore     [Bm]
You left me drowning in my t[Em]ears      [G]
D *STOP*
And you won't save me anymore
I'm praying to God you'll give me one more chance, girl    [D]

Chorus:
I'll be there for you
T[Bm]hese five words I swear to you
When you br[G]eathe I want to be the air for you
[A]I'll be th[C]ere f[G]or y[D]ou
I'd live and I'd die for you  [Bm]

Steal the sun from the sky for you
Wo[G]rds can't say what love can do
A C G *RIFF I'll be there for you

*RIFF
e:-------------------------------------------I
B:-------------------------------------------I
G:---5/7-7-----7/9-9-----9/12--12/11---------I
D:---0-------0---------0-----------0---------I
A:-------------------------------------------I
E:-------------------------------------------I


Verse 2:
I know you know we've had some good times
Now they have their own hiding place
I can promise you tomorrow
But I can't buy back yesterday

And Baby you know my hands are dirty
But I wanted to be your valentine
I'll be the water when you get thirsty, baby
When you get drunk, I'll be the wine

Chorus
Solo: Play Chorus Chords Twice

Verse 3:
And I wasn't there when you were ha[Em]ppy        [G]
I wasn't there when you were [D]dow[Bm]n
I didn't mean to miss your bi[Em]rthday, baby     [G]
D *Scream*
I wish I'd seen you blow those candles out

Chorus

Outro: Same As Intro


Well there you have it. Enjoy! Any comments or thoughts are welcome.

“BON JOVI ROCKS!” (Triumph The Insult Comic Dog)

Important: The song above is NOT stored on the Chordie server. The original song is hosted at www.guitartabs.cc. Chordie works as a search engine and provides on-the-fly formatting. Chordie does not index songs against artists/composers will. To remove this song please click here.

Text color:
Chord color:
Chord grids: 
Font size:    
Page size: 

A Bm C D Em G
variations - click chord images

Login - add to songbook

Transpose chords

Tuning

Rating click stars to rate

Layout
Accuracy

SHARE PAGE  




You need to log in to post comments