Guitar Tabs, Chords and Lyrics


That Thing You Do  Wonders

-7--5--3-----------


----------3--4-----


-------------------

-------------------
-------------------
-------------------
[G]You
[C]Doin that t[D]hing you d[G]o
[C]Rippin' my [D]heart i[Em]nto a million[A] pieces
[Am]Like you always [C]do
And [G]you
[C]Don't mean [D]to be [G]cruel
[C]Never [D]even [Em]knew about the [A]heartache
Am c
I've been goin' through


CHORUS:
[Em]Well I try and try just to [A]get you girl
But it's [G]just so hard to [C]do
[G]Every time you [C]do that th[D]ing you [G]do


VERSE:

[G]I
Know [C]all the [D]games you [G]play
And I'm [C]gonna [D]find a [Em]way to let you [A]know that
[Am]You'll be mine some [C]day

'Cause [G]we
Could be [C]happy [D]can't you [G]see
If you'd [C]only [D]let me [Em]be the one to [A]hold you
And [Am]keep you here with [C]me
CHORUS:
Cause I [Em]try and try to [A]forget you girl
But it's [G]just so hard to [C]do
[G]Every time you [C]do that thing you[G] do


BRIDGE
[G]I don't ask a lot girl
But I [Em]know one thing for sure
It's your l[A]ove I haven't got girl
And I [D]just can't take it any more
SOLO
--3-3-0-3--6-5-33-3--0-3-3-3-0-3--6-5-33-3-0-3------
----------------------------------------------------
----------------------------------------------------
----------------------------------------------------
----------------------------------------------------
----------------------------------------------------
--6-5-3-5--3-5-6-5-3-5-3--56-5-3---3---3------------
---------------------------------5---4---3----------
----------------------------------------------------
----------------------------------------------------
----------------------------------------------------
----------------------------------------------------



VERSE:
Cause w[G]e
Could be [C]happy [D]can't you [G]see
If you'd [C]only [D]let me [Em]be the one to[A] hold you
And [Am]keep you here with [C]me


CHORUS 3
Cause it[Em] hurts me so just to[A] see you go
Ar[G]ound with someone [C]new
And if [G]I know you you're [C]doin' that thing
[G]Every day just [C]doin that thing
[G]I can't take you [C]doin that [D]thing you [G]do.

Important: The song above is NOT stored on the Chordie server. The original song is hosted at www.guitartabs.cc. Chordie works as a search engine and provides on-the-fly formatting. Chordie does not index songs against artists/composers will. To remove this song please click here.

Text color:
Chord color:
Chord grids: 
Font size:    
Page size: 

A Am C D Em G
variations - click chord images

Login - add to songbook

Transpose chords

Tuning

Rating click stars to rate

Layout
Accuracy

SHARE PAGE  




You need to log in to post comments