Guitar Tabs, Chords and Lyrics


Blues Riff   Misc







                         blues thing
                 transcribed by Jason Gibson



E-|------------------------8-5-|-5-8------------------------------|
A-|-------------------7-6-5----|-----5-6-7------------------------|
D-|---------------7-5----------|-----------5-7--------------------|
G-|---------8-7-5--------------|---------------5-7-8--------------|
B-|------8-5-------------------|--------------------5-8-----------|
E-|---8-5----------------------|------------------------5-8-------|


  |--8-7b9-7-5----------------------------------| 
  |------------8-7b9-7-5------------------------|
  |--------------------8-7b9-7-5----------------|
  |------------------------------7-5------------|
  |----------------------------------7-6-5------|
  |----------------------------------------8-5--|			

Important: The song above is NOT stored on the Chordie server. The original song is hosted at www.guitartabs.cc. Chordie works as a search engine and provides on-the-fly formatting. Chordie does not index songs against artists/composers will. To remove this song please click here.

This song is displayed as text-only. Transposing and tuning is only available for chordpro-songs.

Login - add to songbook

Rating click stars to rate

Layout
Accuracy

SHARE PAGE  




You need to log in to post comments