Guitar Tabs, Chords and Lyrics


Blues Riff   Misc



---------------------------------
---------------------------------
---------------------------------
---------------------------------
-2-2-4-4-5-5-4-4-2-2-4-4-5-5-4-4-
-0-0-0-0-0-0-0-0-0-0-0-0-0-0-0-0-

-3-0-------------------------------
-----3-0-----------------------------
---------2-0-----------------------
-------------2---------------------
---------------2-0------------------
-------------------3-0--------------- 		

Important: The song above is NOT stored on the Chordie server. The original song is hosted at www.guitartabs.cc. Chordie works as a search engine and provides on-the-fly formatting. Chordie does not index songs against artists/composers will. To remove this song please click here.

This song is displayed as text-only. Transposing and tuning is only available for chordpro-songs.

Login - add to songbook

Rating click stars to rate

Layout
Accuracy

SHARE PAGE  




You need to log in to post comments