Guitar Tabs, Chords and Lyrics


Killing In the Name   Rage Against The Machine


e :-----------------|-----------------------------------------------------|

{eot}
                                                                                                                                                                                                        
{sot}
B :--3-3-3-3---------|-----------------------------------------------------|

{eot}
                                                                                                                                                                                                        
{sot}
G :--2-2-2-2--------|----------------------------------11-12---------------|

{eot}
                                                                                                                                                                                                        
{sot}
D :-----------------|----------------------------11-12--------------------|         3 x then.. 

{eot}
                                                                                                                                                                                                        
{sot}
A :--------------6~--|-----------------------------------------------------|

{eot}
                                                                                                                                                                                                        
{sot}
D :-----------------|--------------------0-0-0---------------------------| 

{eot}

              Fade in w/ volume knob




   ]    ]    ]    ]      ]    ]    ]    ]      ]    ]    ]    ]      ]    ]    ]    ]                                                                                                                                   
{sot}
e :-----------------|-----------------------------------------------------|

{eot}
                                                                                                                                                                                                        
{sot}
B :-----------------|-----------------------------------------------------|

{eot}
                                                                                                                                                                                                        
{sot}
G :-------------12b-|-----------------------------------------------------|

{eot}
                                                                                                                                                                                                        
{sot}
D :-------11-12-----|-0-0-0-6-6-6--3x0-0-0-6----------------------------|

{eot}
                                                                                                                                                                                                        
{sot}
A :-----------------|-0-0-0-6-6-6----0-0-0-6-----------------------------|

{eot}
                                                                                                                                                                                                        
{sot}
D :-0-0-0-----------|-0-0-0-6-6-6----0-0-0-6-----------------------------|

{eot}

                                    
   Verse
   ]    ]    ]    ]      ]    ]    ]    ]      ]    ]    ]    ]      ]    ]    ]    ]                                                                                                                                   
{sot}
e :-----------------------------------|-----------------------------------|

{eot}
                                                                                                                                                                                                        
{sot}
B :-----------------------------------|-----------------------------------|

{eot}
                                                                                                                                                                                                        
{sot}
G :-----------------------------------|-----------------------------------|

{eot}
                                                                                                                                                                                                        
{sot}
D :----------3h-2---------------------|----------9--------8---------7-----|

{eot}
                                                                                                                                                                                                        
{sot}
A :---3h-5-x------5--0-2--3--2--4-x---|----3h5-x----3h5-x-----3h5-x-------|

{eot}
                                                                                                                                                                                                        
{sot}
D :-0------x---------0-2h-3p-2--------|--0-----x---0----x---0-----x-------|

{eot}
             After 4x semi palm mute 8x

                       Chorus
   +   +   +   +     +   +   +   +     +   (Now you do what they tell ya)
                                                                                                                                                                                                        
{sot}
e :-----------------|-----------------------------------------------------|

{eot}
                                                                                                                                                                                                        
{sot}
B :-----------------|-----------------------------------------------------|

{eot}
                                                                                                                                                                                                        
{sot}
G :-----------------|--7-7-7----7-7-x-7-x-x-x----7-xx-7-x-7----------------|

{eot}
                                                                                                                                                                                                        
{sot}
D :-----------------|--x-x-x-4x-x-x-x-x-x-x-x-8x-x-xx-x-x-x-----5---------|

{eot}
                                                                                                                                                                                                        
{sot}
A :-0-0-2-3-2-2-0---|--5-5-5----5-5-x-5-x-x-x----5-xx-5-x-5-3-5-3---------|

{eot}
                                                                                                                                                                                                        
{sot}
E :-0-0-2-3-2-2-0---|---------------------------------------3-5-----------|

{eot}

Then play verse and chorus again
Solo:


        All done tremelo picking

                                                     These are the chords where Zack is sayin %$#@ you
                                                                                                                                                                                                        
{sot}
e :-13-10------------------13-10------------------------------------------|

{eot}
                                                                                                                                                                                                        
{sot}
B :-------12-10-------11b~-------12-10------------------------------------|

{eot}
                                                                                                                                                                                                        
{sot}
G :-------------12-10------------------12-10--11-b~---7-9-10-12-14-15-17-19

{eot}
                                                                                                                                                                                                        
{sot}
D :---------------------------------------------------x-x--x--x--x--x--x--x

{eot}
                                                                                                                                                                                                        
{sot}
A :---------------------------------------------------5-7--8-10-12-13-15 17    

{eot}
                                                                                                                                                                                                        
{sot}
E :-----------------------------------------------------------------------|

{eot}

 Outro:


                     tremelo
                                                                                                                                                                                                        
{sot}
e :-0---------------------------------------------------|-----------------|

{eot}
                                                                                                                                                                                                        
{sot}
B :-6---------------------------------------------------|-----------------|

{eot}
                                                                                                                                                                                                        
{sot}
G :-5---------------7-----------------------------------|-----------------|

{eot}
                                                                                                                                                                                                        
{sot}
D :-4---------------x-----------0-0-0--6----------------|-----------------|

{eot}
                                                                                                                                                                                                        
{sot}
A :-5---------------5-----------0-0-0--6----------------|-----------------|

{eot}
                                                                                                                                                                                                        
{sot}
E :-----------------------------0-0-0--6----------------|-----------------|

{eot}
  chord at the end


Welcome to...

                                    
The included songs and tabs offer examples of TLC features.  Feel free to clean them up and keep them or just delete them after you've checked them out.  You can also delete this opening screen.


Tabs, Lyrics & Chords
Copyright 2000 Westcom Software
www.tabslyricschords.com



                                                                                                                                                                                                        
{sot}
---TABS, LYRICS AND CHORDS Detail Data-----------------------------------

{eot}
Automatically imported by TLC. Check out TLC at www.tabslyricschords.com!

                                                                                                                                                                                                       
{sot}
---TLC DATA - Do Not Modify Between Lines--------------------------------

{eot}
    Title:killing in the name of
   Author: P. Kehoe
Copyright:
    Album: Rage against the machine
 Category: Rock
    Tempo: Lively
   Tabber:
      Key: D
     Memo:
  LMargin: 1
  RMargin: 1
                                                                                                                                                                                                       
{sot}
---TLC DATA - Do Not Modify Between Lines-------------------------------

{eot}
                  

Important: The song above is NOT stored on the Chordie server. The original song is hosted at www.guitartabs.cc. Chordie works as a search engine and provides on-the-fly formatting. Chordie does not index songs against artists/composers will. To remove this song please click here.

This song is displayed as text-only. Transposing and tuning is only available for chordpro-songs.

Login - add to songbook

Rating click stars to rate

Layout
Accuracy

SHARE PAGE  




You need to log in to post comments