Guitar Tabs, Chords and Lyrics


Whish you were here  Pink Floyd

--------------------------------------------------------------------

All song using acoustic guitars

Intro:
     [G]                                                                      
     e:----------------|--3---3-3-3--|-------------|--3---3-3-3----|
     B:----------------|--3---3-3-3--|-------------|--3---3-3-3----|
     G:----------------|--0---0-0-0--|-----0-------|--0---0-0-0----|
     D:----------0--2--|--2---2-2-2--|--2-----2--0-|--0---0-0-0----|
     A:-----0/2--------|-------------|-------------|---------------|
     E:--3-------------|-------------|-------------|---------------|


          [G]                           
e:----------------|--3---3-3-3--|--------------|--3--3-3-3--------|
B:----------------|--3---3-3-3--|--------------|--3--3-3-3--------|
G:----------------|--0---0-0-0--|--------------|--0--0-0-0--------|
D:----------0--2--|--2---2-2-2--|--2--0--------|--0--0-0-0--------|
A:-----0/2--------|-------------|--------2--0--|------------------|
E:--3-------------|-------------|--------------|------------------|


     [G]                                                                      
     e:---------------3--3-3-3-3--3-3-3-3-3--|
     B:---------------3--3-3-3-3--3-3-3-3-3--|
     G:---------------0--0-0-0-0--0-0-0-0-0--|
     D:-------0-------0--0-0-0-0--0-0-0-0-0--|
     A:--0/2----------2--2-2-2-2--2-2-2-2-2--|
     E:----------3----3--3-3-3-3--3-3-3-3-3--|


This part is done with two guitars. One plays the first intro
line and the lead part tabbed below comes in after the first bar.
This is done consecutively four times.

Lead 1:
     e:-------------------------------------------|
     B:--------3---5-----3------------------------|
     G:---2/4---------4------4/2/0----------------|
     D:-----------------------------0-------0--0--|
     A:--------------------------------1/2--------|
     E:-------------------------------------------|


Lead 2:
   e:---3/5--3--------------------------|
   B:---3/5--3--3/5--3-----3/5--53--0--|
   G:-----------2/4--2--0--2/4--42--0--|
   D:-----------------------------------|
   A:-----------------------------------|
   E:-----------------------------------|


Lead 3:
        e:----------------------------------------------------|
        B:--------3-----5--5b(7)-----3----------3--5----------|
        G:---2/4-----4------------4-----2--4/6--------4/6--2--|
        D:----------------------------------------------------|
        A:----------------------------------------------------|
        E:----------------------------------------------------|


Lead 4:
 	    e:-----------------------------------------------|
 	    B:-------3-----5--5b(7)--3-----3----------3------|
 	    G:--2/4-----4---------------4-----2--2/4------0--|
 	    D:-----------------------------------------------|
 	    A:-----------------------------------------------|
 	    E:-----------------------------------------------|


[C]So, so ya think you can t[D]ell
heaven from h[Am]ell, blue skies from [G]pain, can you tell a green[D] field
from a cold steel [C]rail? A smile from a [Am]veil? Do ya think ya can [G]tell?
did they get you to [C]trade, your hero's for g[D]hosts, hot ashes for t[Am]rees
hot air for a co[G]ol breeze, cold comfort for [D]change, did you ex[C]change,
a walk on part in the [Am]war, for a lead role in a ca[G]ge?

(guitar solo played over intro) (added by Andreas Sjolund)
(Actually, this part is sung over the guitar solo)

--------10-10-------10-10---12-10-10----------------------------
---10/12-------10/12-----------------12-------------------------
----------------------------------------------------------------
----------------------------------------------------------------
----------------------------------------------------------------
----------------------------------------------------------------
---------10-10-10-12-10-----------------------------------------
---10/12--------------------12p10p8-----------------------------
-----------------------------------7-7---9-7--------------------
---------------------------------------9------------------------
----------------------------------------------------------------
----------------------------------------------------------------
----------------10-10-10-----------12---------------------------
-----8-10-10/12---------10--12/14----14p12p10-------------------
---9------------------------------------------------------------
----------------------------------------------------------------
----------------------------------------------------------------
----------------------------------------------------------------

                                                    [G]                      
---------10---------------------------12------------------------
---10/12----12p10p8-10-12-12-8--12/14-----14p12p10--8-----------
----------------------------------------------------------------
----------------------------------------------------------------
----------------------------------------------------------------
----------------------------------------------------------------


[C]How I wish, how I wish you were [D]here,
Were just [Am]two lost soles simming in a fish bow[G]l, year after year,[D]
Running over the same old ground[C], but have we found the same old [Am]fears,
wish you were h[G]ere


(guitar solo, played over intro fig.)
(This second guitar solo is almost identical to the first, with very
slight variations on the same basic:
--------10

--10/12
[and]                                                                          
--------12
--12/14--

themes!)


PINK FLOYD
WISH YOU WERE HERE

Pink Floyd
Wish You Were Here


[C/G]So.. so you think you can t[D/F#]ell
Heaven from H[Am]ell?
Blue skies from p[G]ain?
Can you tell a green fi[D]eld
From a cold steel r[C/G]ail?
A smile from a v[Am/E]eil?
Do you think you can t[G]ell...
Did they get you to t[C/G]rade
Your heros for gh[D/F#]osts?
Hot ashes for tr[Am]ees?
Hot air for a cool[G] breeze?
Cold comfort for cha[D]nge?
Did you ex[C/G]change
A walk on part in the [Am]war
For a lead role in a c[G]age?
[C/G]How I wish, how I wish you were h[D/F#]ere
We're just t[Am]wo lost souls swimming in a fish b[G]owl
Year after year.
[D/F#]Running over the same old ground.
[C/G]What have we found?
The same old f[Am]ears
Wish you were [G]here


____[C/G]__O___O   __[D/F#]O________    X[Am]_O_______O   [Am/E]O_O________  [G] ____O_O____
| | | | X | | | | | | | | | | | x | | | | | x | | | | | | |
| | X | | | x | | x | x | | x x | | | | x x | | | x | | | |
X X | | | | | | | | x | | | | | | | | | | | | | x | | | x x
| | | | | | | | | | | | | | | | | | | | | | | | | | | | | |
| | | | | | | | | | | | | | | | | | | | | | | | | | | | | |
3 4 2 1 T 1 3 2 2 3 1 2 3 1 2 1 3 4


//\
__________________________ \
|Stephen Cook \ .__=.\
|scook@mailer.acns.fsu.edu ____ ,' -(@)-<)
|Institute for Health and ______.,(_______/_:
|Human Services Research |==.______// # /# # || : ____
|644-2710 (FAX)644-8331      '\ =''=//|_|##(O)##|| `./---.      

|_______________________ / / ,`--'./# ======='//, //. .
_______ _(_:_@O__)_///<_>O//// ( (@O ) )
_____ _____________/======'O' `-' /
                             __`-----'__________________`---'___   


Important: The song above is NOT stored on the Chordie server. The original song is hosted at www.home.no. Chordie works as a search engine and provides on-the-fly formatting. Chordie does not index songs against artists/composers will. To remove this song please click here.

Text color:
Chord color:
Chord grids: 
Font size:    
Page size: 

Am Am/E C C/G D D/F# G
variations - click chord images

Login - add to songbook

Transpose chords

Tuning

Rating click stars to rate

Layout
Accuracy

SHARE PAGE  




You need to log in to post comments